  0
SECTION
  2
BLOCKS
  0
ENDSEC
  0
SECTION
  2
ENTITIES
  0
LINE
  8
0
 10
13.5
 20
-41
 11
37.3
 21
-41
  0
LINE
  8
0
 10
37.3
 20
-41
 11
37.3
 21
28
  0
LINE
  8
0
 10
37.3
 20
28
 11
2.5
 21
28
  0
LINE
  8
0
 10
2.5
 20
28
 11
2.5
 21
-31
  0
LINE
  8
0
 10
2.5
 20
-31
 11
2.41113
 21
-31.5895
  0
LINE
  8
0
 10
2.41113
 20
-31.5895
 11
2.15247
 21
-32.1266
  0
LINE
  8
0
 10
2.15247
 20
-32.1266
 11
1.74698
 21
-32.5637
  0
LINE
  8
0
 10
1.74698
 20
-32.5637
 11
1.23067
 21
-32.8617
  0
LINE
  8
0
 10
1.23067
 20
-32.8617
 11
0.64946
 21
-32.9944
  0
LINE
  8
0
 10
0.64946
 20
-32.9944
 11
-0.350525
 21
-32.9944
  0
LINE
  8
0
 10
-0.350525
 20
-32.9944
 11
-0.945038
 21
-32.9498
  0
LINE
  8
0
 10
-0.945038
 20
-32.9498
 11
-1.5
 21
-32.732
  0
LINE
  8
0
 10
-1.5
 20
-32.732
 11
-1.96609
 21
-32.3603
  0
LINE
  8
0
 10
-1.96609
 20
-32.3603
 11
-2.30193
 21
-31.8678
  0
LINE
  8
0
 10
-2.30193
 20
-31.8678
 11
-2.47766
 21
-31.2981
  0
LINE
  8
0
 10
-2.47766
 20
-31.2981
 11
-2.47766
 21
28
  0
LINE
  8
0
 10
-2.47766
 20
28
 11
-37.3
 21
28
  0
LINE
  8
0
 10
-37.3
 20
28
 11
-37.3
 21
-41
  0
LINE
  8
0
 10
-37.3
 20
-41
 11
-13.5
 21
-41
  0
LINE
  8
0
 10
-13.5
 20
-41
 11
-13.5
 21
-42.75
  0
LINE
  8
0
 10
-13.5
 20
-42.75
 11
13.5
 21
-42.75
  0
LINE
  8
0
 10
13.5
 20
-42.75
 11
13.5
 21
-41
  0
LINE
  8
0
 10
34.3451
 20
9.24425
 11
34.0405
 21
9.71826
  0
LINE
  8
0
 10
34.0405
 20
9.71826
 11
34.0405
 21
10.2817
  0
LINE
  8
0
 10
34.0405
 20
10.2817
 11
34.3451
 21
10.7557
  0
LINE
  8
0
 10
34.3451
 20
10.7557
 11
34.8577
 21
10.9898
  0
LINE
  8
0
 10
34.8577
 20
10.9898
 11
35.4154
 21
10.9096
  0
LINE
  8
0
 10
35.4154
 20
10.9096
 11
35.8412
 21
10.5406
  0
LINE
  8
0
 10
35.8412
 20
10.5406
 11
36
 21
10
  0
LINE
  8
0
 10
36
 20
10
 11
35.8412
 21
9.45935
  0
LINE
  8
0
 10
35.8412
 20
9.45935
 11
35.4154
 21
9.09036
  0
LINE
  8
0
 10
35.4154
 20
9.09036
 11
34.8577
 21
9.01018
  0
LINE
  8
0
 10
34.8577
 20
9.01018
 11
34.3451
 21
9.24425
  0
LINE
  8
0
 10
-35.4154
 20
9.09036
 11
-35.8412
 21
9.45935
  0
LINE
  8
0
 10
-35.8412
 20
9.45935
 11
-36
 21
10
  0
LINE
  8
0
 10
-36
 20
10
 11
-35.8412
 21
10.5406
  0
LINE
  8
0
 10
-35.8412
 20
10.5406
 11
-35.4154
 21
10.9096
  0
LINE
  8
0
 10
-35.4154
 20
10.9096
 11
-34.8577
 21
10.9898
  0
LINE
  8
0
 10
-34.8577
 20
10.9898
 11
-34.3451
 21
10.7557
  0
LINE
  8
0
 10
-34.3451
 20
10.7557
 11
-34.0405
 21
10.2817
  0
LINE
  8
0
 10
-34.0405
 20
10.2817
 11
-34.0405
 21
9.71826
  0
LINE
  8
0
 10
-34.0405
 20
9.71826
 11
-34.3451
 21
9.24425
  0
LINE
  8
0
 10
-34.3451
 20
9.24425
 11
-34.8577
 21
9.01018
  0
LINE
  8
0
 10
-34.8577
 20
9.01018
 11
-35.4154
 21
9.09036
  0
LINE
  8
0
 10
4.34514
 20
7.74425
 11
4.0405
 21
8.21826
  0
LINE
  8
0
 10
4.0405
 20
8.21826
 11
4.0405
 21
8.78172
  0
LINE
  8
0
 10
4.0405
 20
8.78172
 11
4.34514
 21
9.25574
  0
LINE
  8
0
 10
4.34514
 20
9.25574
 11
4.85768
 21
9.48981
  0
LINE
  8
0
 10
4.85768
 20
9.48981
 11
5.41541
 21
9.40962
  0
LINE
  8
0
 10
5.41541
 20
9.40962
 11
5.84125
 21
9.04063
  0
LINE
  8
0
 10
5.84125
 20
9.04063
 11
6
 21
8.5
  0
LINE
  8
0
 10
6
 20
8.5
 11
5.84125
 21
7.95935
  0
LINE
  8
0
 10
5.84125
 20
7.95935
 11
5.41541
 21
7.59036
  0
LINE
  8
0
 10
5.41541
 20
7.59036
 11
4.85768
 21
7.51018
  0
LINE
  8
0
 10
4.85768
 20
7.51018
 11
4.34514
 21
7.74425
  0
LINE
  8
0
 10
-5.41541
 20
7.59036
 11
-5.84125
 21
7.95935
  0
LINE
  8
0
 10
-5.84125
 20
7.95935
 11
-6
 21
8.5
  0
LINE
  8
0
 10
-6
 20
8.5
 11
-5.84125
 21
9.04063
  0
LINE
  8
0
 10
-5.84125
 20
9.04063
 11
-5.41541
 21
9.40962
  0
LINE
  8
0
 10
-5.41541
 20
9.40962
 11
-4.85768
 21
9.48981
  0
LINE
  8
0
 10
-4.85768
 20
9.48981
 11
-4.34514
 21
9.25574
  0
LINE
  8
0
 10
-4.34514
 20
9.25574
 11
-4.0405
 21
8.78172
  0
LINE
  8
0
 10
-4.0405
 20
8.78172
 11
-4.0405
 21
8.21826
  0
LINE
  8
0
 10
-4.0405
 20
8.21826
 11
-4.34514
 21
7.74425
  0
LINE
  8
0
 10
-4.34514
 20
7.74425
 11
-4.85768
 21
7.51018
  0
LINE
  8
0
 10
-4.85768
 20
7.51018
 11
-5.41541
 21
7.59036
  0
LINE
  8
0
 10
34.3451
 20
-4.75574
 11
34.0405
 21
-4.28172
  0
LINE
  8
0
 10
34.0405
 20
-4.28172
 11
34.0405
 21
-3.71826
  0
LINE
  8
0
 10
34.0405
 20
-3.71826
 11
34.3451
 21
-3.24425
  0
LINE
  8
0
 10
34.3451
 20
-3.24425
 11
34.8577
 21
-3.01018
  0
LINE
  8
0
 10
34.8577
 20
-3.01018
 11
35.4154
 21
-3.09036
  0
LINE
  8
0
 10
35.4154
 20
-3.09036
 11
35.8412
 21
-3.45935
  0
LINE
  8
0
 10
35.8412
 20
-3.45935
 11
36
 21
-4
  0
LINE
  8
0
 10
36
 20
-4
 11
35.8412
 21
-4.54063
  0
LINE
  8
0
 10
35.8412
 20
-4.54063
 11
35.4154
 21
-4.90962
  0
LINE
  8
0
 10
35.4154
 20
-4.90962
 11
34.8577
 21
-4.98981
  0
LINE
  8
0
 10
34.8577
 20
-4.98981
 11
34.3451
 21
-4.75574
  0
LINE
  8
0
 10
-35.4154
 20
-4.90962
 11
-35.8412
 21
-4.54063
  0
LINE
  8
0
 10
-35.8412
 20
-4.54063
 11
-36
 21
-4
  0
LINE
  8
0
 10
-36
 20
-4
 11
-35.8412
 21
-3.45935
  0
LINE
  8
0
 10
-35.8412
 20
-3.45935
 11
-35.4154
 21
-3.09036
  0
LINE
  8
0
 10
-35.4154
 20
-3.09036
 11
-34.8577
 21
-3.01018
  0
LINE
  8
0
 10
-34.8577
 20
-3.01018
 11
-34.3451
 21
-3.24425
  0
LINE
  8
0
 10
-34.3451
 20
-3.24425
 11
-34.0405
 21
-3.71826
  0
LINE
  8
0
 10
-34.0405
 20
-3.71826
 11
-34.0405
 21
-4.28172
  0
LINE
  8
0
 10
-34.0405
 20
-4.28172
 11
-34.3451
 21
-4.75574
  0
LINE
  8
0
 10
-34.3451
 20
-4.75574
 11
-34.8577
 21
-4.98981
  0
LINE
  8
0
 10
-34.8577
 20
-4.98981
 11
-35.4154
 21
-4.90962
  0
LINE
  8
0
 10
4.34514
 20
-41.2557
 11
4.0405
 21
-40.7817
  0
LINE
  8
0
 10
4.0405
 20
-40.7817
 11
4.0405
 21
-40.2183
  0
LINE
  8
0
 10
4.0405
 20
-40.2183
 11
4.34514
 21
-39.7442
  0
LINE
  8
0
 10
4.34514
 20
-39.7442
 11
4.85768
 21
-39.5102
  0
LINE
  8
0
 10
4.85768
 20
-39.5102
 11
5.41541
 21
-39.5904
  0
LINE
  8
0
 10
5.41541
 20
-39.5904
 11
5.84125
 21
-39.9594
  0
LINE
  8
0
 10
5.84125
 20
-39.9594
 11
6
 21
-40.5
  0
LINE
  8
0
 10
6
 20
-40.5
 11
5.84125
 21
-41.0406
  0
LINE
  8
0
 10
5.84125
 20
-41.0406
 11
5.41541
 21
-41.4096
  0
LINE
  8
0
 10
5.41541
 20
-41.4096
 11
4.85768
 21
-41.4898
  0
LINE
  8
0
 10
4.85768
 20
-41.4898
 11
4.34514
 21
-41.2557
  0
LINE
  8
0
 10
-5.41541
 20
-41.4096
 11
-5.84125
 21
-41.0406
  0
LINE
  8
0
 10
-5.84125
 20
-41.0406
 11
-6
 21
-40.5
  0
LINE
  8
0
 10
-6
 20
-40.5
 11
-5.84125
 21
-39.9594
  0
LINE
  8
0
 10
-5.84125
 20
-39.9594
 11
-5.41541
 21
-39.5904
  0
LINE
  8
0
 10
-5.41541
 20
-39.5904
 11
-4.85768
 21
-39.5102
  0
LINE
  8
0
 10
-4.85768
 20
-39.5102
 11
-4.34514
 21
-39.7442
  0
LINE
  8
0
 10
-4.34514
 20
-39.7442
 11
-4.0405
 21
-40.2183
  0
LINE
  8
0
 10
-4.0405
 20
-40.2183
 11
-4.0405
 21
-40.7817
  0
LINE
  8
0
 10
-4.0405
 20
-40.7817
 11
-4.34514
 21
-41.2557
  0
LINE
  8
0
 10
-4.34514
 20
-41.2557
 11
-4.85768
 21
-41.4898
  0
LINE
  8
0
 10
-4.85768
 20
-41.4898
 11
-5.41541
 21
-41.4096
  0
ENDSEC
  0
SECTION
  2
OBJECTS
  0
DICTIONARY
  0
ENDSEC
  0
EOF
