  0
SECTION
  2
HEADER
  9
$ACADVER
  1
AC1014
  9
$HANDSEED
  5
FFFF
  9
$MEASUREMENT
 70
     1
  0
ENDSEC
  0
SECTION
  2
TABLES
  0
TABLE
  2
VPORT
  5
8
330
0
100
AcDbSymbolTable
 70
     4
  0
VPORT
  5
2E
330
8
100
AcDbSymbolTableRecord
100
AcDbViewportTableRecord
  2
*ACTIVE
 70
     0
 10
0.0
 20
0.0
 11
1.0
 21
1.0
 12
210.0
 22
148.5
 13
0.0
 23
0.0
 14
10.0
 24
10.0
 15
10.0
 25
10.0
 16
0.0
 26
0.0
 36
1.0
 17
0.0
 27
0.0
 37
0.0
 40
341.0
 41
1.24
 42
50.0
 43
0.0
 44
0.0
 50
0.0
 51
0.0
 71
     0
 72
   100
 73
     1
 74
     3
 75
     0
 76
     0
 77
     0
 78
     0
  0
ENDTAB
  0
TABLE
  2
LTYPE
  5
5
330
0
100
AcDbSymbolTable
 70
     1
  0
LTYPE
  5
14
330
5
100
AcDbSymbolTableRecord
100
AcDbLinetypeTableRecord
  2
BYBLOCK
 70
     0
  3

 72
    65
 73
     0
 40
0.0
  0
LTYPE
  5
15
330
5
100
AcDbSymbolTableRecord
100
AcDbLinetypeTableRecord
  2
BYLAYER
 70
     0
  3

 72
    65
 73
     0
 40
0.0
  0
LTYPE
  5
16
330
5
100
AcDbSymbolTableRecord
100
AcDbLinetypeTableRecord
  2
CONTINUOUS
 70
     0
  3
Solid line
 72
    65
 73
     0
 40
0.0
  0
ENDTAB
  0
TABLE
  2
LAYER
  5
2
100
AcDbSymbolTable
 70
2
  0
LAYER
  5
50
100
AcDbSymbolTableRecord
100
AcDbLayerTableRecord
  2
0
 70
0
  6
CONTINUOUS
  0
LAYER
  5
51
100
AcDbSymbolTableRecord
100
AcDbLayerTableRecord
  2
Layer_1
 70
0
  6
CONTINUOUS
  0
ENDTAB
  0
TABLE
  2
STYLE
  5
3
330
0
100
AcDbSymbolTable
 70
     1
  0
STYLE
  5
11
330
3
100
AcDbSymbolTableRecord
100
AcDbTextStyleTableRecord
  2
STANDARD
 70
     0
 40
0.0
 41
1.0
 50
0.0
 71
     0
 42
2.5
  3
txt
  4

  0
ENDTAB
  0
TABLE
  2
VIEW
  5
6
330
0
100
AcDbSymbolTable
 70
     0
  0
ENDTAB
  0
TABLE
  2
UCS
  5
7
330
0
100
AcDbSymbolTable
 70
     0
  0
ENDTAB
  0
TABLE
  2
APPID
  5
9
330
0
100
AcDbSymbolTable
 70
     2
  0
APPID
  5
12
330
9
100
AcDbSymbolTableRecord
100
AcDbRegAppTableRecord
  2
ACAD
 70
     0
  0
ENDTAB
  0
TABLE
  2
DIMSTYLE
  5
A
330
0
100
AcDbSymbolTable
 70
     1
  0
DIMSTYLE
105
27
330
A
100
AcDbSymbolTableRecord
100
AcDbDimStyleTableRecord
  2
ISO-25
 70
     0
  3

  4

  5

  6

  7

 40
1.0
 41
2.5
 42
0.625
 43
3.75
 44
1.25
 45
0.0
 46
0.0
 47
0.0
 48
0.0
140
2.5
141
2.5
142
0.0
143
0.03937007874016
144
1.0
145
0.0
146
1.0
147
0.625
 71
     0
 72
     0
 73
     0
 74
     0
 75
     0
 76
     0
 77
     1
 78
     8
170
     0
171
     3
172
     1
173
     0
174
     0
175
     0
176
     0
177
     0
178
     0
270
     2
271
     2
272
     2
273
     2
274
     3
340
11
275
     0
280
     0
281
     0
282
     0
283
     0
284
     8
285
     0
286
     0
287
     3
288
     0
  0
ENDTAB
  0
TABLE
  2
BLOCK_RECORD
  5
1
330
0
100
AcDbSymbolTable
 70
     1
  0
BLOCK_RECORD
  5
1F
330
1
100
AcDbSymbolTableRecord
100
AcDbBlockTableRecord
  2
*MODEL_SPACE
  0
BLOCK_RECORD
  5
1B
330
1
100
AcDbSymbolTableRecord
100
AcDbBlockTableRecord
  2
*PAPER_SPACE
  0
ENDTAB
  0
ENDSEC
  0
SECTION
  2
BLOCKS
  0
BLOCK
  5
20
330
1F
100
AcDbEntity
  8
0
100
AcDbBlockBegin
  2
*MODEL_SPACE
 70
     0
 10
0.0
 20
0.0
 30
0.0
  3
*MODEL_SPACE
  1

  0
ENDBLK
  5
21
330
1F
100
AcDbEntity
  8
0
100
AcDbBlockEnd
  0
BLOCK
  5
1C
330
1B
100
AcDbEntity
 67
     1
  8
0
100
AcDbBlockBegin
  2
*PAPER_SPACE
  1

  0
ENDBLK
  5
1D
330
1B
100
AcDbEntity
 67
     1
  8
0
100
AcDbBlockEnd
  0
ENDSEC
  0
SECTION
  2
ENTITIES
  0
LINE
  5
100
100
AcDbEntity
  8
Layer_1
 62
7
100
AcDbLine
 10
145.962043
 20
101.500006
 30
0.0
 11
146.078558
 21
100.922890
 31
0.0
  0
LINE
  5
101
100
AcDbEntity
  8
Layer_1
 62
7
100
AcDbLine
 10
146.078558
 20
100.922890
 30
0.0
 11
146.396301
 21
100.451612
 31
0.0
  0
LINE
  5
102
100
AcDbEntity
  8
Layer_1
 62
7
100
AcDbLine
 10
146.396301
 20
100.451612
 30
0.0
 11
146.867581
 21
100.133867
 31
0.0
  0
LINE
  5
103
100
AcDbEntity
  8
Layer_1
 62
7
100
AcDbLine
 10
146.867581
 20
100.133867
 30
0.0
 11
147.444697
 21
100.017351
 31
0.0
  0
LINE
  5
104
100
AcDbEntity
  8
Layer_1
 62
7
100
AcDbLine
 10
147.444697
 20
100.017351
 30
0.0
 11
148.021813
 21
100.133867
 31
0.0
  0
LINE
  5
105
100
AcDbEntity
  8
Layer_1
 62
7
100
AcDbLine
 10
148.021813
 20
100.133867
 30
0.0
 11
148.493091
 21
100.451612
 31
0.0
  0
LINE
  5
106
100
AcDbEntity
  8
Layer_1
 62
7
100
AcDbLine
 10
148.493091
 20
100.451612
 30
0.0
 11
148.810836
 21
100.922890
 31
0.0
  0
LINE
  5
107
100
AcDbEntity
  8
Layer_1
 62
7
100
AcDbLine
 10
148.810836
 20
100.922890
 30
0.0
 11
148.927352
 21
101.500006
 31
0.0
  0
LINE
  5
108
100
AcDbEntity
  8
Layer_1
 62
7
100
AcDbLine
 10
148.927352
 20
101.500006
 30
0.0
 11
148.810836
 21
102.077122
 31
0.0
  0
LINE
  5
109
100
AcDbEntity
  8
Layer_1
 62
7
100
AcDbLine
 10
148.810836
 20
102.077122
 30
0.0
 11
148.493091
 21
102.548402
 31
0.0
  0
LINE
  5
10a
100
AcDbEntity
  8
Layer_1
 62
7
100
AcDbLine
 10
148.493091
 20
102.548402
 30
0.0
 11
148.021813
 21
102.866145
 31
0.0
  0
LINE
  5
10b
100
AcDbEntity
  8
Layer_1
 62
7
100
AcDbLine
 10
148.021813
 20
102.866145
 30
0.0
 11
147.444697
 21
102.982660
 31
0.0
  0
LINE
  5
10c
100
AcDbEntity
  8
Layer_1
 62
7
100
AcDbLine
 10
147.444697
 20
102.982660
 30
0.0
 11
146.867581
 21
102.866145
 31
0.0
  0
LINE
  5
10d
100
AcDbEntity
  8
Layer_1
 62
7
100
AcDbLine
 10
146.867581
 20
102.866145
 30
0.0
 11
146.396301
 21
102.548402
 31
0.0
  0
LINE
  5
10e
100
AcDbEntity
  8
Layer_1
 62
7
100
AcDbLine
 10
146.396301
 20
102.548402
 30
0.0
 11
146.078558
 21
102.077122
 31
0.0
  0
LINE
  5
10f
100
AcDbEntity
  8
Layer_1
 62
7
100
AcDbLine
 10
146.078558
 20
102.077122
 30
0.0
 11
145.962043
 21
101.500006
 31
0.0
  0
LINE
  5
110
100
AcDbEntity
  8
Layer_1
 62
7
100
AcDbLine
 10
145.962043
 20
101.500006
 30
0.0
 11
145.962043
 21
101.500006
 31
0.0
  0
LINE
  5
111
100
AcDbEntity
  8
Layer_1
 62
7
100
AcDbLine
 10
87.962043
 20
101.500006
 30
0.0
 11
88.078558
 21
100.922890
 31
0.0
  0
LINE
  5
112
100
AcDbEntity
  8
Layer_1
 62
7
100
AcDbLine
 10
88.078558
 20
100.922890
 30
0.0
 11
88.396301
 21
100.451612
 31
0.0
  0
LINE
  5
113
100
AcDbEntity
  8
Layer_1
 62
7
100
AcDbLine
 10
88.396301
 20
100.451612
 30
0.0
 11
88.867581
 21
100.133867
 31
0.0
  0
LINE
  5
114
100
AcDbEntity
  8
Layer_1
 62
7
100
AcDbLine
 10
88.867581
 20
100.133867
 30
0.0
 11
89.444697
 21
100.017351
 31
0.0
  0
LINE
  5
115
100
AcDbEntity
  8
Layer_1
 62
7
100
AcDbLine
 10
89.444697
 20
100.017351
 30
0.0
 11
90.021814
 21
100.133867
 31
0.0
  0
LINE
  5
116
100
AcDbEntity
  8
Layer_1
 62
7
100
AcDbLine
 10
90.021814
 20
100.133867
 30
0.0
 11
90.493091
 21
100.451612
 31
0.0
  0
LINE
  5
117
100
AcDbEntity
  8
Layer_1
 62
7
100
AcDbLine
 10
90.493091
 20
100.451612
 30
0.0
 11
90.810836
 21
100.922890
 31
0.0
  0
LINE
  5
118
100
AcDbEntity
  8
Layer_1
 62
7
100
AcDbLine
 10
90.810836
 20
100.922890
 30
0.0
 11
90.927352
 21
101.500006
 31
0.0
  0
LINE
  5
119
100
AcDbEntity
  8
Layer_1
 62
7
100
AcDbLine
 10
90.927352
 20
101.500006
 30
0.0
 11
90.810836
 21
102.077122
 31
0.0
  0
LINE
  5
11a
100
AcDbEntity
  8
Layer_1
 62
7
100
AcDbLine
 10
90.810836
 20
102.077122
 30
0.0
 11
90.493091
 21
102.548402
 31
0.0
  0
LINE
  5
11b
100
AcDbEntity
  8
Layer_1
 62
7
100
AcDbLine
 10
90.493091
 20
102.548402
 30
0.0
 11
90.021814
 21
102.866145
 31
0.0
  0
LINE
  5
11c
100
AcDbEntity
  8
Layer_1
 62
7
100
AcDbLine
 10
90.021814
 20
102.866145
 30
0.0
 11
89.444697
 21
102.982660
 31
0.0
  0
LINE
  5
11d
100
AcDbEntity
  8
Layer_1
 62
7
100
AcDbLine
 10
89.444697
 20
102.982660
 30
0.0
 11
88.867581
 21
102.866145
 31
0.0
  0
LINE
  5
11e
100
AcDbEntity
  8
Layer_1
 62
7
100
AcDbLine
 10
88.867581
 20
102.866145
 30
0.0
 11
88.396301
 21
102.548402
 31
0.0
  0
LINE
  5
11f
100
AcDbEntity
  8
Layer_1
 62
7
100
AcDbLine
 10
88.396301
 20
102.548402
 30
0.0
 11
88.078558
 21
102.077122
 31
0.0
  0
LINE
  5
120
100
AcDbEntity
  8
Layer_1
 62
7
100
AcDbLine
 10
88.078558
 20
102.077122
 30
0.0
 11
87.962043
 21
101.500006
 31
0.0
  0
LINE
  5
121
100
AcDbEntity
  8
Layer_1
 62
7
100
AcDbLine
 10
87.962043
 20
101.500006
 30
0.0
 11
87.962043
 21
101.500006
 31
0.0
  0
LINE
  5
122
100
AcDbEntity
  8
Layer_1
 62
7
100
AcDbLine
 10
145.962043
 20
150.500010
 30
0.0
 11
146.074903
 21
149.932622
 31
0.0
  0
LINE
  5
123
100
AcDbEntity
  8
Layer_1
 62
7
100
AcDbLine
 10
146.074903
 20
149.932622
 30
0.0
 11
146.396301
 21
149.451613
 31
0.0
  0
LINE
  5
124
100
AcDbEntity
  8
Layer_1
 62
7
100
AcDbLine
 10
146.396301
 20
149.451613
 30
0.0
 11
146.877309
 21
149.130213
 31
0.0
  0
LINE
  5
125
100
AcDbEntity
  8
Layer_1
 62
7
100
AcDbLine
 10
146.877309
 20
149.130213
 30
0.0
 11
147.444697
 21
149.017352
 31
0.0
  0
LINE
  5
126
100
AcDbEntity
  8
Layer_1
 62
7
100
AcDbLine
 10
147.444697
 20
149.017352
 30
0.0
 11
148.012085
 21
149.130213
 31
0.0
  0
LINE
  5
127
100
AcDbEntity
  8
Layer_1
 62
7
100
AcDbLine
 10
148.012085
 20
149.130213
 30
0.0
 11
148.493093
 21
149.451613
 31
0.0
  0
LINE
  5
128
100
AcDbEntity
  8
Layer_1
 62
7
100
AcDbLine
 10
148.493093
 20
149.451613
 30
0.0
 11
148.814491
 21
149.932622
 31
0.0
  0
LINE
  5
129
100
AcDbEntity
  8
Layer_1
 62
7
100
AcDbLine
 10
148.814491
 20
149.932622
 30
0.0
 11
148.927352
 21
150.500010
 31
0.0
  0
LINE
  5
12a
100
AcDbEntity
  8
Layer_1
 62
7
100
AcDbLine
 10
148.927352
 20
150.500010
 30
0.0
 11
148.810836
 21
151.077126
 31
0.0
  0
LINE
  5
12b
100
AcDbEntity
  8
Layer_1
 62
7
100
AcDbLine
 10
148.810836
 20
151.077126
 30
0.0
 11
148.493091
 21
151.548403
 31
0.0
  0
LINE
  5
12c
100
AcDbEntity
  8
Layer_1
 62
7
100
AcDbLine
 10
148.493091
 20
151.548403
 30
0.0
 11
148.021813
 21
151.866149
 31
0.0
  0
LINE
  5
12d
100
AcDbEntity
  8
Layer_1
 62
7
100
AcDbLine
 10
148.021813
 20
151.866149
 30
0.0
 11
147.444697
 21
151.982664
 31
0.0
  0
LINE
  5
12e
100
AcDbEntity
  8
Layer_1
 62
7
100
AcDbLine
 10
147.444697
 20
151.982664
 30
0.0
 11
146.867581
 21
151.866149
 31
0.0
  0
LINE
  5
12f
100
AcDbEntity
  8
Layer_1
 62
7
100
AcDbLine
 10
146.867581
 20
151.866149
 30
0.0
 11
146.396301
 21
151.548403
 31
0.0
  0
LINE
  5
130
100
AcDbEntity
  8
Layer_1
 62
7
100
AcDbLine
 10
146.396301
 20
151.548403
 30
0.0
 11
146.078558
 21
151.077126
 31
0.0
  0
LINE
  5
131
100
AcDbEntity
  8
Layer_1
 62
7
100
AcDbLine
 10
146.078558
 20
151.077126
 30
0.0
 11
145.962043
 21
150.500010
 31
0.0
  0
LINE
  5
132
100
AcDbEntity
  8
Layer_1
 62
7
100
AcDbLine
 10
145.962043
 20
150.500010
 30
0.0
 11
145.962043
 21
150.500010
 31
0.0
  0
LINE
  5
133
100
AcDbEntity
  8
Layer_1
 62
7
100
AcDbLine
 10
87.962049
 20
150.500010
 30
0.0
 11
88.074909
 21
149.932622
 31
0.0
  0
LINE
  5
134
100
AcDbEntity
  8
Layer_1
 62
7
100
AcDbLine
 10
88.074909
 20
149.932622
 30
0.0
 11
88.396307
 21
149.451613
 31
0.0
  0
LINE
  5
135
100
AcDbEntity
  8
Layer_1
 62
7
100
AcDbLine
 10
88.396307
 20
149.451613
 30
0.0
 11
88.877315
 21
149.130213
 31
0.0
  0
LINE
  5
136
100
AcDbEntity
  8
Layer_1
 62
7
100
AcDbLine
 10
88.877315
 20
149.130213
 30
0.0
 11
89.444703
 21
149.017352
 31
0.0
  0
LINE
  5
137
100
AcDbEntity
  8
Layer_1
 62
7
100
AcDbLine
 10
89.444703
 20
149.017352
 30
0.0
 11
90.012091
 21
149.130213
 31
0.0
  0
LINE
  5
138
100
AcDbEntity
  8
Layer_1
 62
7
100
AcDbLine
 10
90.012091
 20
149.130213
 30
0.0
 11
90.493099
 21
149.451613
 31
0.0
  0
LINE
  5
139
100
AcDbEntity
  8
Layer_1
 62
7
100
AcDbLine
 10
90.493099
 20
149.451613
 30
0.0
 11
90.814497
 21
149.932622
 31
0.0
  0
LINE
  5
13a
100
AcDbEntity
  8
Layer_1
 62
7
100
AcDbLine
 10
90.814497
 20
149.932622
 30
0.0
 11
90.927357
 21
150.500010
 31
0.0
  0
LINE
  5
13b
100
AcDbEntity
  8
Layer_1
 62
7
100
AcDbLine
 10
90.927357
 20
150.500010
 30
0.0
 11
90.810842
 21
151.077126
 31
0.0
  0
LINE
  5
13c
100
AcDbEntity
  8
Layer_1
 62
7
100
AcDbLine
 10
90.810842
 20
151.077126
 30
0.0
 11
90.493096
 21
151.548403
 31
0.0
  0
LINE
  5
13d
100
AcDbEntity
  8
Layer_1
 62
7
100
AcDbLine
 10
90.493096
 20
151.548403
 30
0.0
 11
90.021819
 21
151.866149
 31
0.0
  0
LINE
  5
13e
100
AcDbEntity
  8
Layer_1
 62
7
100
AcDbLine
 10
90.021819
 20
151.866149
 30
0.0
 11
89.444703
 21
151.982664
 31
0.0
  0
LINE
  5
13f
100
AcDbEntity
  8
Layer_1
 62
7
100
AcDbLine
 10
89.444703
 20
151.982664
 30
0.0
 11
88.867587
 21
151.866149
 31
0.0
  0
LINE
  5
140
100
AcDbEntity
  8
Layer_1
 62
7
100
AcDbLine
 10
88.867587
 20
151.866149
 30
0.0
 11
88.396307
 21
151.548403
 31
0.0
  0
LINE
  5
141
100
AcDbEntity
  8
Layer_1
 62
7
100
AcDbLine
 10
88.396307
 20
151.548403
 30
0.0
 11
88.078564
 21
151.077126
 31
0.0
  0
LINE
  5
142
100
AcDbEntity
  8
Layer_1
 62
7
100
AcDbLine
 10
88.078564
 20
151.077126
 30
0.0
 11
87.962049
 21
150.500010
 31
0.0
  0
LINE
  5
143
100
AcDbEntity
  8
Layer_1
 62
7
100
AcDbLine
 10
87.962049
 20
150.500010
 30
0.0
 11
87.962049
 21
150.500010
 31
0.0
  0
LINE
  5
144
100
AcDbEntity
  8
Layer_1
 62
7
100
AcDbLine
 10
155.769000
 20
153.768922
 30
0.0
 11
155.769000
 21
97.622134
 31
0.0
  0
LINE
  5
145
100
AcDbEntity
  8
Layer_1
 62
7
100
AcDbLine
 10
155.769000
 20
97.622134
 30
0.0
 11
147.591354
 21
97.622134
 31
0.0
  0
LINE
  5
146
100
AcDbEntity
  8
Layer_1
 62
7
100
AcDbLine
 10
147.591354
 20
97.622134
 30
0.0
 11
147.591354
 21
97.624957
 31
0.0
  0
LINE
  5
147
100
AcDbEntity
  8
Layer_1
 62
7
100
AcDbLine
 10
147.591354
 20
97.624957
 30
0.0
 11
147.536783
 21
97.622134
 31
0.0
  0
LINE
  5
148
100
AcDbEntity
  8
Layer_1
 62
7
100
AcDbLine
 10
147.536783
 20
97.622134
 30
0.0
 11
89.344985
 21
97.622134
 31
0.0
  0
LINE
  5
149
100
AcDbEntity
  8
Layer_1
 62
7
100
AcDbLine
 10
89.344985
 20
97.622134
 30
0.0
 11
88.637903
 21
97.693006
 31
0.0
  0
LINE
  5
14a
100
AcDbEntity
  8
Layer_1
 62
7
100
AcDbLine
 10
88.637903
 20
97.693006
 30
0.0
 11
87.980145
 21
97.896372
 31
0.0
  0
LINE
  5
14b
100
AcDbEntity
  8
Layer_1
 62
7
100
AcDbLine
 10
87.980145
 20
97.896372
 30
0.0
 11
87.385570
 21
98.218365
 31
0.0
  0
LINE
  5
14c
100
AcDbEntity
  8
Layer_1
 62
7
100
AcDbLine
 10
87.385570
 20
98.218365
 30
0.0
 11
86.868028
 21
98.645116
 31
0.0
  0
LINE
  5
14d
100
AcDbEntity
  8
Layer_1
 62
7
100
AcDbLine
 10
86.868028
 20
98.645116
 30
0.0
 11
86.441376
 21
99.162760
 31
0.0
  0
LINE
  5
14e
100
AcDbEntity
  8
Layer_1
 62
7
100
AcDbLine
 10
86.441376
 20
99.162760
 30
0.0
 11
86.119470
 21
99.757428
 31
0.0
  0
LINE
  5
14f
100
AcDbEntity
  8
Layer_1
 62
7
100
AcDbLine
 10
86.119470
 20
99.757428
 30
0.0
 11
85.916166
 21
100.415245
 31
0.0
  0
LINE
  5
150
100
AcDbEntity
  8
Layer_1
 62
7
100
AcDbLine
 10
85.916166
 20
100.415245
 30
0.0
 11
85.845320
 21
101.122350
 31
0.0
  0
LINE
  5
151
100
AcDbEntity
  8
Layer_1
 62
7
100
AcDbLine
 10
85.845320
 20
101.122350
 30
0.0
 11
85.845320
 21
150.268706
 31
0.0
  0
LINE
  5
152
100
AcDbEntity
  8
Layer_1
 62
7
100
AcDbLine
 10
85.845320
 20
150.268706
 30
0.0
 11
85.916166
 21
150.975788
 31
0.0
  0
LINE
  5
153
100
AcDbEntity
  8
Layer_1
 62
7
100
AcDbLine
 10
85.916166
 20
150.975788
 30
0.0
 11
86.119470
 21
151.633544
 31
0.0
  0
LINE
  5
154
100
AcDbEntity
  8
Layer_1
 62
7
100
AcDbLine
 10
86.119470
 20
151.633544
 30
0.0
 11
86.441376
 21
152.228121
 31
0.0
  0
LINE
  5
155
100
AcDbEntity
  8
Layer_1
 62
7
100
AcDbLine
 10
86.441376
 20
152.228121
 30
0.0
 11
86.868028
 21
152.745663
 31
0.0
  0
LINE
  5
156
100
AcDbEntity
  8
Layer_1
 62
7
100
AcDbLine
 10
86.868028
 20
152.745663
 30
0.0
 11
87.385570
 21
153.172315
 31
0.0
  0
LINE
  5
157
100
AcDbEntity
  8
Layer_1
 62
7
100
AcDbLine
 10
87.385570
 20
153.172315
 30
0.0
 11
87.980145
 21
153.494221
 31
0.0
  0
LINE
  5
158
100
AcDbEntity
  8
Layer_1
 62
7
100
AcDbLine
 10
87.980145
 20
153.494221
 30
0.0
 11
88.637903
 21
153.697525
 31
0.0
  0
LINE
  5
159
100
AcDbEntity
  8
Layer_1
 62
7
100
AcDbLine
 10
88.637903
 20
153.697525
 30
0.0
 11
89.344985
 21
153.768371
 31
0.0
  0
LINE
  5
15a
100
AcDbEntity
  8
Layer_1
 62
7
100
AcDbLine
 10
89.344985
 20
153.768371
 30
0.0
 11
147.536783
 21
153.768371
 31
0.0
  0
LINE
  5
15b
100
AcDbEntity
  8
Layer_1
 62
7
100
AcDbLine
 10
147.536783
 20
153.768371
 30
0.0
 11
147.591354
 21
153.765549
 31
0.0
  0
LINE
  5
15c
100
AcDbEntity
  8
Layer_1
 62
7
100
AcDbLine
 10
147.591354
 20
153.765549
 30
0.0
 11
147.591354
 21
153.768851
 31
0.0
  0
LINE
  5
15d
100
AcDbEntity
  8
Layer_1
 62
7
100
AcDbLine
 10
147.591354
 20
153.768851
 30
0.0
 11
155.769000
 21
153.768851
 31
0.0
  0
LINE
  5
15e
100
AcDbEntity
  8
Layer_1
 62
7
100
AcDbLine
 10
155.769000
 20
153.768851
 30
0.0
 11
155.769000
 21
153.768922
 31
0.0
  0
LINE
  5
15f
100
AcDbEntity
  8
Layer_1
 62
7
100
AcDbLine
 10
108.422271
 20
125.402653
 30
0.0
 11
102.577731
 21
125.402653
 31
0.0
  0
LINE
  5
160
100
AcDbEntity
  8
Layer_1
 62
7
100
AcDbLine
 10
102.577731
 20
125.402653
 30
0.0
 11
102.577731
 21
99.558114
 31
0.0
  0
LINE
  5
161
100
AcDbEntity
  8
Layer_1
 62
7
100
AcDbLine
 10
102.577731
 20
99.558114
 30
0.0
 11
108.422271
 21
99.558114
 31
0.0
  0
LINE
  5
162
100
AcDbEntity
  8
Layer_1
 62
7
100
AcDbLine
 10
108.422271
 20
99.558114
 30
0.0
 11
108.422271
 21
125.402653
 31
0.0
  0
LINE
  5
163
100
AcDbEntity
  8
Layer_1
 62
7
100
AcDbLine
 10
146.169510
 20
43.974543
 30
0.0
 11
146.286025
 21
43.397427
 31
0.0
  0
LINE
  5
164
100
AcDbEntity
  8
Layer_1
 62
7
100
AcDbLine
 10
146.286025
 20
43.397427
 30
0.0
 11
146.603768
 21
42.926150
 31
0.0
  0
LINE
  5
165
100
AcDbEntity
  8
Layer_1
 62
7
100
AcDbLine
 10
146.603768
 20
42.926150
 30
0.0
 11
147.075048
 21
42.608404
 31
0.0
  0
LINE
  5
166
100
AcDbEntity
  8
Layer_1
 62
7
100
AcDbLine
 10
147.075048
 20
42.608404
 30
0.0
 11
147.652164
 21
42.491889
 31
0.0
  0
LINE
  5
167
100
AcDbEntity
  8
Layer_1
 62
7
100
AcDbLine
 10
147.652164
 20
42.491889
 30
0.0
 11
148.229280
 21
42.608404
 31
0.0
  0
LINE
  5
168
100
AcDbEntity
  8
Layer_1
 62
7
100
AcDbLine
 10
148.229280
 20
42.608404
 30
0.0
 11
148.700558
 21
42.926150
 31
0.0
  0
LINE
  5
169
100
AcDbEntity
  8
Layer_1
 62
7
100
AcDbLine
 10
148.700558
 20
42.926150
 30
0.0
 11
149.018303
 21
43.397427
 31
0.0
  0
LINE
  5
16a
100
AcDbEntity
  8
Layer_1
 62
7
100
AcDbLine
 10
149.018303
 20
43.397427
 30
0.0
 11
149.134819
 21
43.974543
 31
0.0
  0
LINE
  5
16b
100
AcDbEntity
  8
Layer_1
 62
7
100
AcDbLine
 10
149.134819
 20
43.974543
 30
0.0
 11
149.018303
 21
44.551659
 31
0.0
  0
LINE
  5
16c
100
AcDbEntity
  8
Layer_1
 62
7
100
AcDbLine
 10
149.018303
 20
44.551659
 30
0.0
 11
148.700558
 21
45.022939
 31
0.0
  0
LINE
  5
16d
100
AcDbEntity
  8
Layer_1
 62
7
100
AcDbLine
 10
148.700558
 20
45.022939
 30
0.0
 11
148.229280
 21
45.340682
 31
0.0
  0
LINE
  5
16e
100
AcDbEntity
  8
Layer_1
 62
7
100
AcDbLine
 10
148.229280
 20
45.340682
 30
0.0
 11
147.652164
 21
45.457198
 31
0.0
  0
LINE
  5
16f
100
AcDbEntity
  8
Layer_1
 62
7
100
AcDbLine
 10
147.652164
 20
45.457198
 30
0.0
 11
147.075048
 21
45.340682
 31
0.0
  0
LINE
  5
170
100
AcDbEntity
  8
Layer_1
 62
7
100
AcDbLine
 10
147.075048
 20
45.340682
 30
0.0
 11
146.603768
 21
45.022939
 31
0.0
  0
LINE
  5
171
100
AcDbEntity
  8
Layer_1
 62
7
100
AcDbLine
 10
146.603768
 20
45.022939
 30
0.0
 11
146.286025
 21
44.551659
 31
0.0
  0
LINE
  5
172
100
AcDbEntity
  8
Layer_1
 62
7
100
AcDbLine
 10
146.286025
 20
44.551659
 30
0.0
 11
146.169510
 21
43.974543
 31
0.0
  0
LINE
  5
173
100
AcDbEntity
  8
Layer_1
 62
7
100
AcDbLine
 10
146.169510
 20
43.974543
 30
0.0
 11
146.169510
 21
43.974543
 31
0.0
  0
LINE
  5
174
100
AcDbEntity
  8
Layer_1
 62
7
100
AcDbLine
 10
88.169510
 20
43.974543
 30
0.0
 11
88.286026
 21
43.397427
 31
0.0
  0
LINE
  5
175
100
AcDbEntity
  8
Layer_1
 62
7
100
AcDbLine
 10
88.286026
 20
43.397427
 30
0.0
 11
88.603771
 21
42.926150
 31
0.0
  0
LINE
  5
176
100
AcDbEntity
  8
Layer_1
 62
7
100
AcDbLine
 10
88.603771
 20
42.926150
 30
0.0
 11
89.075048
 21
42.608404
 31
0.0
  0
LINE
  5
177
100
AcDbEntity
  8
Layer_1
 62
7
100
AcDbLine
 10
89.075048
 20
42.608404
 30
0.0
 11
89.652165
 21
42.491889
 31
0.0
  0
LINE
  5
178
100
AcDbEntity
  8
Layer_1
 62
7
100
AcDbLine
 10
89.652165
 20
42.491889
 30
0.0
 11
90.229281
 21
42.608404
 31
0.0
  0
LINE
  5
179
100
AcDbEntity
  8
Layer_1
 62
7
100
AcDbLine
 10
90.229281
 20
42.608404
 30
0.0
 11
90.700558
 21
42.926150
 31
0.0
  0
LINE
  5
17a
100
AcDbEntity
  8
Layer_1
 62
7
100
AcDbLine
 10
90.700558
 20
42.926150
 30
0.0
 11
91.018304
 21
43.397427
 31
0.0
  0
LINE
  5
17b
100
AcDbEntity
  8
Layer_1
 62
7
100
AcDbLine
 10
91.018304
 20
43.397427
 30
0.0
 11
91.134819
 21
43.974543
 31
0.0
  0
LINE
  5
17c
100
AcDbEntity
  8
Layer_1
 62
7
100
AcDbLine
 10
91.134819
 20
43.974543
 30
0.0
 11
91.018304
 21
44.551659
 31
0.0
  0
LINE
  5
17d
100
AcDbEntity
  8
Layer_1
 62
7
100
AcDbLine
 10
91.018304
 20
44.551659
 30
0.0
 11
90.700558
 21
45.022939
 31
0.0
  0
LINE
  5
17e
100
AcDbEntity
  8
Layer_1
 62
7
100
AcDbLine
 10
90.700558
 20
45.022939
 30
0.0
 11
90.229281
 21
45.340682
 31
0.0
  0
LINE
  5
17f
100
AcDbEntity
  8
Layer_1
 62
7
100
AcDbLine
 10
90.229281
 20
45.340682
 30
0.0
 11
89.652165
 21
45.457198
 31
0.0
  0
LINE
  5
180
100
AcDbEntity
  8
Layer_1
 62
7
100
AcDbLine
 10
89.652165
 20
45.457198
 30
0.0
 11
89.075048
 21
45.340682
 31
0.0
  0
LINE
  5
181
100
AcDbEntity
  8
Layer_1
 62
7
100
AcDbLine
 10
89.075048
 20
45.340682
 30
0.0
 11
88.603771
 21
45.022939
 31
0.0
  0
LINE
  5
182
100
AcDbEntity
  8
Layer_1
 62
7
100
AcDbLine
 10
88.603771
 20
45.022939
 30
0.0
 11
88.286026
 21
44.551659
 31
0.0
  0
LINE
  5
183
100
AcDbEntity
  8
Layer_1
 62
7
100
AcDbLine
 10
88.286026
 20
44.551659
 30
0.0
 11
88.169510
 21
43.974543
 31
0.0
  0
LINE
  5
184
100
AcDbEntity
  8
Layer_1
 62
7
100
AcDbLine
 10
88.169510
 20
43.974543
 30
0.0
 11
88.169510
 21
43.974543
 31
0.0
  0
LINE
  5
185
100
AcDbEntity
  8
Layer_1
 62
7
100
AcDbLine
 10
146.169510
 20
92.974547
 30
0.0
 11
146.282368
 21
92.407159
 31
0.0
  0
LINE
  5
186
100
AcDbEntity
  8
Layer_1
 62
7
100
AcDbLine
 10
146.282368
 20
92.407159
 30
0.0
 11
146.603768
 21
91.926150
 31
0.0
  0
LINE
  5
187
100
AcDbEntity
  8
Layer_1
 62
7
100
AcDbLine
 10
146.603768
 20
91.926150
 30
0.0
 11
147.084776
 21
91.604750
 31
0.0
  0
LINE
  5
188
100
AcDbEntity
  8
Layer_1
 62
7
100
AcDbLine
 10
147.084776
 20
91.604750
 30
0.0
 11
147.652164
 21
91.491889
 31
0.0
  0
LINE
  5
189
100
AcDbEntity
  8
Layer_1
 62
7
100
AcDbLine
 10
147.652164
 20
91.491889
 30
0.0
 11
148.219552
 21
91.604750
 31
0.0
  0
LINE
  5
18a
100
AcDbEntity
  8
Layer_1
 62
7
100
AcDbLine
 10
148.219552
 20
91.604750
 30
0.0
 11
148.700561
 21
91.926150
 31
0.0
  0
LINE
  5
18b
100
AcDbEntity
  8
Layer_1
 62
7
100
AcDbLine
 10
148.700561
 20
91.926150
 30
0.0
 11
149.021958
 21
92.407159
 31
0.0
  0
LINE
  5
18c
100
AcDbEntity
  8
Layer_1
 62
7
100
AcDbLine
 10
149.021958
 20
92.407159
 30
0.0
 11
149.134819
 21
92.974547
 31
0.0
  0
LINE
  5
18d
100
AcDbEntity
  8
Layer_1
 62
7
100
AcDbLine
 10
149.134819
 20
92.974547
 30
0.0
 11
149.018303
 21
93.551663
 31
0.0
  0
LINE
  5
18e
100
AcDbEntity
  8
Layer_1
 62
7
100
AcDbLine
 10
149.018303
 20
93.551663
 30
0.0
 11
148.700558
 21
94.022940
 31
0.0
  0
LINE
  5
18f
100
AcDbEntity
  8
Layer_1
 62
7
100
AcDbLine
 10
148.700558
 20
94.022940
 30
0.0
 11
148.229280
 21
94.340689
 31
0.0
  0
LINE
  5
190
100
AcDbEntity
  8
Layer_1
 62
7
100
AcDbLine
 10
148.229280
 20
94.340689
 30
0.0
 11
147.652164
 21
94.457201
 31
0.0
  0
LINE
  5
191
100
AcDbEntity
  8
Layer_1
 62
7
100
AcDbLine
 10
147.652164
 20
94.457201
 30
0.0
 11
147.075048
 21
94.340689
 31
0.0
  0
LINE
  5
192
100
AcDbEntity
  8
Layer_1
 62
7
100
AcDbLine
 10
147.075048
 20
94.340689
 30
0.0
 11
146.603768
 21
94.022940
 31
0.0
  0
LINE
  5
193
100
AcDbEntity
  8
Layer_1
 62
7
100
AcDbLine
 10
146.603768
 20
94.022940
 30
0.0
 11
146.286025
 21
93.551663
 31
0.0
  0
LINE
  5
194
100
AcDbEntity
  8
Layer_1
 62
7
100
AcDbLine
 10
146.286025
 20
93.551663
 30
0.0
 11
146.169510
 21
92.974547
 31
0.0
  0
LINE
  5
195
100
AcDbEntity
  8
Layer_1
 62
7
100
AcDbLine
 10
146.169510
 20
92.974547
 30
0.0
 11
146.169510
 21
92.974547
 31
0.0
  0
LINE
  5
196
100
AcDbEntity
  8
Layer_1
 62
7
100
AcDbLine
 10
88.169516
 20
92.974547
 30
0.0
 11
88.282374
 21
92.407159
 31
0.0
  0
LINE
  5
197
100
AcDbEntity
  8
Layer_1
 62
7
100
AcDbLine
 10
88.282374
 20
92.407159
 30
0.0
 11
88.603774
 21
91.926150
 31
0.0
  0
LINE
  5
198
100
AcDbEntity
  8
Layer_1
 62
7
100
AcDbLine
 10
88.603774
 20
91.926150
 30
0.0
 11
89.084782
 21
91.604750
 31
0.0
  0
LINE
  5
199
100
AcDbEntity
  8
Layer_1
 62
7
100
AcDbLine
 10
89.084782
 20
91.604750
 30
0.0
 11
89.652170
 21
91.491889
 31
0.0
  0
LINE
  5
19a
100
AcDbEntity
  8
Layer_1
 62
7
100
AcDbLine
 10
89.652170
 20
91.491889
 30
0.0
 11
90.219558
 21
91.604750
 31
0.0
  0
LINE
  5
19b
100
AcDbEntity
  8
Layer_1
 62
7
100
AcDbLine
 10
90.219558
 20
91.604750
 30
0.0
 11
90.700566
 21
91.926150
 31
0.0
  0
LINE
  5
19c
100
AcDbEntity
  8
Layer_1
 62
7
100
AcDbLine
 10
90.700566
 20
91.926150
 30
0.0
 11
91.021964
 21
92.407159
 31
0.0
  0
LINE
  5
19d
100
AcDbEntity
  8
Layer_1
 62
7
100
AcDbLine
 10
91.021964
 20
92.407159
 30
0.0
 11
91.134825
 21
92.974547
 31
0.0
  0
LINE
  5
19e
100
AcDbEntity
  8
Layer_1
 62
7
100
AcDbLine
 10
91.134825
 20
92.974547
 30
0.0
 11
91.018309
 21
93.551663
 31
0.0
  0
LINE
  5
19f
100
AcDbEntity
  8
Layer_1
 62
7
100
AcDbLine
 10
91.018309
 20
93.551663
 30
0.0
 11
90.700564
 21
94.022940
 31
0.0
  0
LINE
  5
1a0
100
AcDbEntity
  8
Layer_1
 62
7
100
AcDbLine
 10
90.700564
 20
94.022940
 30
0.0
 11
90.229286
 21
94.340689
 31
0.0
  0
LINE
  5
1a1
100
AcDbEntity
  8
Layer_1
 62
7
100
AcDbLine
 10
90.229286
 20
94.340689
 30
0.0
 11
89.652170
 21
94.457201
 31
0.0
  0
LINE
  5
1a2
100
AcDbEntity
  8
Layer_1
 62
7
100
AcDbLine
 10
89.652170
 20
94.457201
 30
0.0
 11
89.075054
 21
94.340689
 31
0.0
  0
LINE
  5
1a3
100
AcDbEntity
  8
Layer_1
 62
7
100
AcDbLine
 10
89.075054
 20
94.340689
 30
0.0
 11
88.603774
 21
94.022940
 31
0.0
  0
LINE
  5
1a4
100
AcDbEntity
  8
Layer_1
 62
7
100
AcDbLine
 10
88.603774
 20
94.022940
 30
0.0
 11
88.286031
 21
93.551663
 31
0.0
  0
LINE
  5
1a5
100
AcDbEntity
  8
Layer_1
 62
7
100
AcDbLine
 10
88.286031
 20
93.551663
 30
0.0
 11
88.169516
 21
92.974547
 31
0.0
  0
LINE
  5
1a6
100
AcDbEntity
  8
Layer_1
 62
7
100
AcDbLine
 10
88.169516
 20
92.974547
 30
0.0
 11
88.169516
 21
92.974547
 31
0.0
  0
LINE
  5
1a7
100
AcDbEntity
  8
Layer_1
 62
7
100
AcDbLine
 10
155.976001
 20
96.243459
 30
0.0
 11
155.976001
 21
40.096672
 31
0.0
  0
LINE
  5
1a8
100
AcDbEntity
  8
Layer_1
 62
7
100
AcDbLine
 10
155.976001
 20
40.096672
 30
0.0
 11
147.798821
 21
40.096672
 31
0.0
  0
LINE
  5
1a9
100
AcDbEntity
  8
Layer_1
 62
7
100
AcDbLine
 10
147.798821
 20
40.096672
 30
0.0
 11
147.798821
 21
40.099494
 31
0.0
  0
LINE
  5
1aa
100
AcDbEntity
  8
Layer_1
 62
7
100
AcDbLine
 10
147.798821
 20
40.099494
 30
0.0
 11
147.744251
 21
40.096672
 31
0.0
  0
LINE
  5
1ab
100
AcDbEntity
  8
Layer_1
 62
7
100
AcDbLine
 10
147.744251
 20
40.096672
 30
0.0
 11
89.552453
 21
40.096672
 31
0.0
  0
LINE
  5
1ac
100
AcDbEntity
  8
Layer_1
 62
7
100
AcDbLine
 10
89.552453
 20
40.096672
 30
0.0
 11
88.845370
 21
40.167543
 31
0.0
  0
LINE
  5
1ad
100
AcDbEntity
  8
Layer_1
 62
7
100
AcDbLine
 10
88.845370
 20
40.167543
 30
0.0
 11
88.187612
 21
40.370910
 31
0.0
  0
LINE
  5
1ae
100
AcDbEntity
  8
Layer_1
 62
7
100
AcDbLine
 10
88.187612
 20
40.370910
 30
0.0
 11
87.593037
 21
40.692903
 31
0.0
  0
LINE
  5
1af
100
AcDbEntity
  8
Layer_1
 62
7
100
AcDbLine
 10
87.593037
 20
40.692903
 30
0.0
 11
87.075493
 21
41.119657
 31
0.0
  0
LINE
  5
1b0
100
AcDbEntity
  8
Layer_1
 62
7
100
AcDbLine
 10
87.075493
 20
41.119657
 30
0.0
 11
86.648843
 21
41.637297
 31
0.0
  0
LINE
  5
1b1
100
AcDbEntity
  8
Layer_1
 62
7
100
AcDbLine
 10
86.648843
 20
41.637297
 30
0.0
 11
86.326938
 21
42.231962
 31
0.0
  0
LINE
  5
1b2
100
AcDbEntity
  8
Layer_1
 62
7
100
AcDbLine
 10
86.326938
 20
42.231962
 30
0.0
 11
86.123633
 21
42.889783
 31
0.0
  0
LINE
  5
1b3
100
AcDbEntity
  8
Layer_1
 62
7
100
AcDbLine
 10
86.123633
 20
42.889783
 30
0.0
 11
86.052787
 21
43.596887
 31
0.0
  0
LINE
  5
1b4
100
AcDbEntity
  8
Layer_1
 62
7
100
AcDbLine
 10
86.052787
 20
43.596887
 30
0.0
 11
86.052787
 21
92.743243
 31
0.0
  0
LINE
  5
1b5
100
AcDbEntity
  8
Layer_1
 62
7
100
AcDbLine
 10
86.052787
 20
92.743243
 30
0.0
 11
86.123633
 21
93.450325
 31
0.0
  0
LINE
  5
1b6
100
AcDbEntity
  8
Layer_1
 62
7
100
AcDbLine
 10
86.123633
 20
93.450325
 30
0.0
 11
86.326938
 21
94.108081
 31
0.0
  0
LINE
  5
1b7
100
AcDbEntity
  8
Layer_1
 62
7
100
AcDbLine
 10
86.326938
 20
94.108081
 30
0.0
 11
86.648843
 21
94.702658
 31
0.0
  0
LINE
  5
1b8
100
AcDbEntity
  8
Layer_1
 62
7
100
AcDbLine
 10
86.648843
 20
94.702658
 30
0.0
 11
87.075493
 21
95.220200
 31
0.0
  0
LINE
  5
1b9
100
AcDbEntity
  8
Layer_1
 62
7
100
AcDbLine
 10
87.075493
 20
95.220200
 30
0.0
 11
87.593037
 21
95.646853
 31
0.0
  0
LINE
  5
1ba
100
AcDbEntity
  8
Layer_1
 62
7
100
AcDbLine
 10
87.593037
 20
95.646853
 30
0.0
 11
88.187612
 21
95.968758
 31
0.0
  0
LINE
  5
1bb
100
AcDbEntity
  8
Layer_1
 62
7
100
AcDbLine
 10
88.187612
 20
95.968758
 30
0.0
 11
88.845370
 21
96.172062
 31
0.0
  0
LINE
  5
1bc
100
AcDbEntity
  8
Layer_1
 62
7
100
AcDbLine
 10
88.845370
 20
96.172062
 30
0.0
 11
89.552453
 21
96.242909
 31
0.0
  0
LINE
  5
1bd
100
AcDbEntity
  8
Layer_1
 62
7
100
AcDbLine
 10
89.552453
 20
96.242909
 30
0.0
 11
147.744251
 21
96.242909
 31
0.0
  0
LINE
  5
1be
100
AcDbEntity
  8
Layer_1
 62
7
100
AcDbLine
 10
147.744251
 20
96.242909
 30
0.0
 11
147.798821
 21
96.240086
 31
0.0
  0
LINE
  5
1bf
100
AcDbEntity
  8
Layer_1
 62
7
100
AcDbLine
 10
147.798821
 20
96.240086
 30
0.0
 11
147.798821
 21
96.243388
 31
0.0
  0
LINE
  5
1c0
100
AcDbEntity
  8
Layer_1
 62
7
100
AcDbLine
 10
147.798821
 20
96.243388
 30
0.0
 11
153.976290
 21
96.243388
 31
0.0
  0
LINE
  5
1c1
100
AcDbEntity
  8
Layer_1
 62
7
100
AcDbLine
 10
153.976290
 20
96.243388
 30
0.0
 11
155.976001
 21
96.243459
 31
0.0
  0
ENDSEC
  0
SECTION
  2
OBJECTS
  0
DICTIONARY
  5
C
330
0
100
AcDbDictionary
  3
ACAD_GROUP
350
D
  3
ACAD_MLINESTYLE
350
17
  0
DICTIONARY
  5
D
330
C
100
AcDbDictionary
  0
DICTIONARY
  5
1A
330
C
100
AcDbDictionary
  0
DICTIONARY
  5
17
330
C
100
AcDbDictionary
  3
STANDARD
350
18
  0
DICTIONARY
  5
19
330
C
100
AcDbDictionary
  0
ENDSEC
  0
EOF
