  0
SECTION
  2
HEADER
  9
$ACADVER
  1
AC1014
  9
$HANDSEED
  5
FFFF
  9
$MEASUREMENT
 70
     1
  0
ENDSEC
  0
SECTION
  2
TABLES
  0
TABLE
  2
VPORT
  5
8
330
0
100
AcDbSymbolTable
 70
     4
  0
VPORT
  5
2E
330
8
100
AcDbSymbolTableRecord
100
AcDbViewportTableRecord
  2
*ACTIVE
 70
     0
 10
0.0
 20
0.0
 11
1.0
 21
1.0
 12
210.0
 22
148.5
 13
0.0
 23
0.0
 14
10.0
 24
10.0
 15
10.0
 25
10.0
 16
0.0
 26
0.0
 36
1.0
 17
0.0
 27
0.0
 37
0.0
 40
341.0
 41
1.24
 42
50.0
 43
0.0
 44
0.0
 50
0.0
 51
0.0
 71
     0
 72
   100
 73
     1
 74
     3
 75
     0
 76
     0
 77
     0
 78
     0
  0
ENDTAB
  0
TABLE
  2
LTYPE
  5
5
330
0
100
AcDbSymbolTable
 70
     1
  0
LTYPE
  5
14
330
5
100
AcDbSymbolTableRecord
100
AcDbLinetypeTableRecord
  2
BYBLOCK
 70
     0
  3

 72
    65
 73
     0
 40
0.0
  0
LTYPE
  5
15
330
5
100
AcDbSymbolTableRecord
100
AcDbLinetypeTableRecord
  2
BYLAYER
 70
     0
  3

 72
    65
 73
     0
 40
0.0
  0
LTYPE
  5
16
330
5
100
AcDbSymbolTableRecord
100
AcDbLinetypeTableRecord
  2
CONTINUOUS
 70
     0
  3
Solid line
 72
    65
 73
     0
 40
0.0
  0
ENDTAB
  0
TABLE
  2
LAYER
  5
2
100
AcDbSymbolTable
 70
2
  0
LAYER
  5
50
100
AcDbSymbolTableRecord
100
AcDbLayerTableRecord
  2
0
 70
0
  6
CONTINUOUS
  0
LAYER
  5
51
100
AcDbSymbolTableRecord
100
AcDbLayerTableRecord
  2
Layer_1
 70
0
  6
CONTINUOUS
  0
ENDTAB
  0
TABLE
  2
STYLE
  5
3
330
0
100
AcDbSymbolTable
 70
     1
  0
STYLE
  5
11
330
3
100
AcDbSymbolTableRecord
100
AcDbTextStyleTableRecord
  2
STANDARD
 70
     0
 40
0.0
 41
1.0
 50
0.0
 71
     0
 42
2.5
  3
txt
  4

  0
ENDTAB
  0
TABLE
  2
VIEW
  5
6
330
0
100
AcDbSymbolTable
 70
     0
  0
ENDTAB
  0
TABLE
  2
UCS
  5
7
330
0
100
AcDbSymbolTable
 70
     0
  0
ENDTAB
  0
TABLE
  2
APPID
  5
9
330
0
100
AcDbSymbolTable
 70
     2
  0
APPID
  5
12
330
9
100
AcDbSymbolTableRecord
100
AcDbRegAppTableRecord
  2
ACAD
 70
     0
  0
ENDTAB
  0
TABLE
  2
DIMSTYLE
  5
A
330
0
100
AcDbSymbolTable
 70
     1
  0
DIMSTYLE
105
27
330
A
100
AcDbSymbolTableRecord
100
AcDbDimStyleTableRecord
  2
ISO-25
 70
     0
  3

  4

  5

  6

  7

 40
1.0
 41
2.5
 42
0.625
 43
3.75
 44
1.25
 45
0.0
 46
0.0
 47
0.0
 48
0.0
140
2.5
141
2.5
142
0.0
143
0.03937007874016
144
1.0
145
0.0
146
1.0
147
0.625
 71
     0
 72
     0
 73
     0
 74
     0
 75
     0
 76
     0
 77
     1
 78
     8
170
     0
171
     3
172
     1
173
     0
174
     0
175
     0
176
     0
177
     0
178
     0
270
     2
271
     2
272
     2
273
     2
274
     3
340
11
275
     0
280
     0
281
     0
282
     0
283
     0
284
     8
285
     0
286
     0
287
     3
288
     0
  0
ENDTAB
  0
TABLE
  2
BLOCK_RECORD
  5
1
330
0
100
AcDbSymbolTable
 70
     1
  0
BLOCK_RECORD
  5
1F
330
1
100
AcDbSymbolTableRecord
100
AcDbBlockTableRecord
  2
*MODEL_SPACE
  0
BLOCK_RECORD
  5
1B
330
1
100
AcDbSymbolTableRecord
100
AcDbBlockTableRecord
  2
*PAPER_SPACE
  0
ENDTAB
  0
ENDSEC
  0
SECTION
  2
BLOCKS
  0
BLOCK
  5
20
330
1F
100
AcDbEntity
  8
0
100
AcDbBlockBegin
  2
*MODEL_SPACE
 70
     0
 10
0.0
 20
0.0
 30
0.0
  3
*MODEL_SPACE
  1

  0
ENDBLK
  5
21
330
1F
100
AcDbEntity
  8
0
100
AcDbBlockEnd
  0
BLOCK
  5
1C
330
1B
100
AcDbEntity
 67
     1
  8
0
100
AcDbBlockBegin
  2
*PAPER_SPACE
  1

  0
ENDBLK
  5
1D
330
1B
100
AcDbEntity
 67
     1
  8
0
100
AcDbBlockEnd
  0
ENDSEC
  0
SECTION
  2
ENTITIES
  0
LINE
  5
100
100
AcDbEntity
  8
Layer_1
 62
7
100
AcDbLine
 10
145.962043
 20
101.499999
 30
0.0
 11
146.078557
 21
100.922883
 31
0.0
  0
LINE
  5
101
100
AcDbEntity
  8
Layer_1
 62
7
100
AcDbLine
 10
146.078557
 20
100.922883
 30
0.0
 11
146.396302
 21
100.451604
 31
0.0
  0
LINE
  5
102
100
AcDbEntity
  8
Layer_1
 62
7
100
AcDbLine
 10
146.396302
 20
100.451604
 30
0.0
 11
146.867581
 21
100.133859
 31
0.0
  0
LINE
  5
103
100
AcDbEntity
  8
Layer_1
 62
7
100
AcDbLine
 10
146.867581
 20
100.133859
 30
0.0
 11
147.444697
 21
100.017344
 31
0.0
  0
LINE
  5
104
100
AcDbEntity
  8
Layer_1
 62
7
100
AcDbLine
 10
147.444697
 20
100.017344
 30
0.0
 11
148.021813
 21
100.133859
 31
0.0
  0
LINE
  5
105
100
AcDbEntity
  8
Layer_1
 62
7
100
AcDbLine
 10
148.021813
 20
100.133859
 30
0.0
 11
148.493092
 21
100.451604
 31
0.0
  0
LINE
  5
106
100
AcDbEntity
  8
Layer_1
 62
7
100
AcDbLine
 10
148.493092
 20
100.451604
 30
0.0
 11
148.810837
 21
100.922883
 31
0.0
  0
LINE
  5
107
100
AcDbEntity
  8
Layer_1
 62
7
100
AcDbLine
 10
148.810837
 20
100.922883
 30
0.0
 11
148.927352
 21
101.499999
 31
0.0
  0
LINE
  5
108
100
AcDbEntity
  8
Layer_1
 62
7
100
AcDbLine
 10
148.927352
 20
101.499999
 30
0.0
 11
148.810837
 21
102.077115
 31
0.0
  0
LINE
  5
109
100
AcDbEntity
  8
Layer_1
 62
7
100
AcDbLine
 10
148.810837
 20
102.077115
 30
0.0
 11
148.493092
 21
102.548394
 31
0.0
  0
LINE
  5
10a
100
AcDbEntity
  8
Layer_1
 62
7
100
AcDbLine
 10
148.493092
 20
102.548394
 30
0.0
 11
148.021813
 21
102.866139
 31
0.0
  0
LINE
  5
10b
100
AcDbEntity
  8
Layer_1
 62
7
100
AcDbLine
 10
148.021813
 20
102.866139
 30
0.0
 11
147.444697
 21
102.982653
 31
0.0
  0
LINE
  5
10c
100
AcDbEntity
  8
Layer_1
 62
7
100
AcDbLine
 10
147.444697
 20
102.982653
 30
0.0
 11
146.867581
 21
102.866139
 31
0.0
  0
LINE
  5
10d
100
AcDbEntity
  8
Layer_1
 62
7
100
AcDbLine
 10
146.867581
 20
102.866139
 30
0.0
 11
146.396302
 21
102.548394
 31
0.0
  0
LINE
  5
10e
100
AcDbEntity
  8
Layer_1
 62
7
100
AcDbLine
 10
146.396302
 20
102.548394
 30
0.0
 11
146.078557
 21
102.077115
 31
0.0
  0
LINE
  5
10f
100
AcDbEntity
  8
Layer_1
 62
7
100
AcDbLine
 10
146.078557
 20
102.077115
 30
0.0
 11
145.962043
 21
101.499999
 31
0.0
  0
LINE
  5
110
100
AcDbEntity
  8
Layer_1
 62
7
100
AcDbLine
 10
145.962043
 20
101.499999
 30
0.0
 11
145.962043
 21
101.499999
 31
0.0
  0
LINE
  5
111
100
AcDbEntity
  8
Layer_1
 62
7
100
AcDbLine
 10
87.962043
 20
101.499999
 30
0.0
 11
88.078557
 21
100.922883
 31
0.0
  0
LINE
  5
112
100
AcDbEntity
  8
Layer_1
 62
7
100
AcDbLine
 10
88.078557
 20
100.922883
 30
0.0
 11
88.396302
 21
100.451604
 31
0.0
  0
LINE
  5
113
100
AcDbEntity
  8
Layer_1
 62
7
100
AcDbLine
 10
88.396302
 20
100.451604
 30
0.0
 11
88.867581
 21
100.133859
 31
0.0
  0
LINE
  5
114
100
AcDbEntity
  8
Layer_1
 62
7
100
AcDbLine
 10
88.867581
 20
100.133859
 30
0.0
 11
89.444697
 21
100.017344
 31
0.0
  0
LINE
  5
115
100
AcDbEntity
  8
Layer_1
 62
7
100
AcDbLine
 10
89.444697
 20
100.017344
 30
0.0
 11
90.021813
 21
100.133859
 31
0.0
  0
LINE
  5
116
100
AcDbEntity
  8
Layer_1
 62
7
100
AcDbLine
 10
90.021813
 20
100.133859
 30
0.0
 11
90.493092
 21
100.451604
 31
0.0
  0
LINE
  5
117
100
AcDbEntity
  8
Layer_1
 62
7
100
AcDbLine
 10
90.493092
 20
100.451604
 30
0.0
 11
90.810837
 21
100.922883
 31
0.0
  0
LINE
  5
118
100
AcDbEntity
  8
Layer_1
 62
7
100
AcDbLine
 10
90.810837
 20
100.922883
 30
0.0
 11
90.927352
 21
101.499999
 31
0.0
  0
LINE
  5
119
100
AcDbEntity
  8
Layer_1
 62
7
100
AcDbLine
 10
90.927352
 20
101.499999
 30
0.0
 11
90.810837
 21
102.077115
 31
0.0
  0
LINE
  5
11a
100
AcDbEntity
  8
Layer_1
 62
7
100
AcDbLine
 10
90.810837
 20
102.077115
 30
0.0
 11
90.493092
 21
102.548394
 31
0.0
  0
LINE
  5
11b
100
AcDbEntity
  8
Layer_1
 62
7
100
AcDbLine
 10
90.493092
 20
102.548394
 30
0.0
 11
90.021813
 21
102.866139
 31
0.0
  0
LINE
  5
11c
100
AcDbEntity
  8
Layer_1
 62
7
100
AcDbLine
 10
90.021813
 20
102.866139
 30
0.0
 11
89.444697
 21
102.982653
 31
0.0
  0
LINE
  5
11d
100
AcDbEntity
  8
Layer_1
 62
7
100
AcDbLine
 10
89.444697
 20
102.982653
 30
0.0
 11
88.867581
 21
102.866139
 31
0.0
  0
LINE
  5
11e
100
AcDbEntity
  8
Layer_1
 62
7
100
AcDbLine
 10
88.867581
 20
102.866139
 30
0.0
 11
88.396302
 21
102.548394
 31
0.0
  0
LINE
  5
11f
100
AcDbEntity
  8
Layer_1
 62
7
100
AcDbLine
 10
88.396302
 20
102.548394
 30
0.0
 11
88.078557
 21
102.077115
 31
0.0
  0
LINE
  5
120
100
AcDbEntity
  8
Layer_1
 62
7
100
AcDbLine
 10
88.078557
 20
102.077115
 30
0.0
 11
87.962043
 21
101.499999
 31
0.0
  0
LINE
  5
121
100
AcDbEntity
  8
Layer_1
 62
7
100
AcDbLine
 10
87.962043
 20
101.499999
 30
0.0
 11
87.962043
 21
101.499999
 31
0.0
  0
LINE
  5
122
100
AcDbEntity
  8
Layer_1
 62
7
100
AcDbLine
 10
145.962043
 20
150.500002
 30
0.0
 11
146.074902
 21
149.932614
 31
0.0
  0
LINE
  5
123
100
AcDbEntity
  8
Layer_1
 62
7
100
AcDbLine
 10
146.074902
 20
149.932614
 30
0.0
 11
146.396301
 21
149.451606
 31
0.0
  0
LINE
  5
124
100
AcDbEntity
  8
Layer_1
 62
7
100
AcDbLine
 10
146.396301
 20
149.451606
 30
0.0
 11
146.877309
 21
149.130206
 31
0.0
  0
LINE
  5
125
100
AcDbEntity
  8
Layer_1
 62
7
100
AcDbLine
 10
146.877309
 20
149.130206
 30
0.0
 11
147.444697
 21
149.017345
 31
0.0
  0
LINE
  5
126
100
AcDbEntity
  8
Layer_1
 62
7
100
AcDbLine
 10
147.444697
 20
149.017345
 30
0.0
 11
148.012085
 21
149.130206
 31
0.0
  0
LINE
  5
127
100
AcDbEntity
  8
Layer_1
 62
7
100
AcDbLine
 10
148.012085
 20
149.130206
 30
0.0
 11
148.493093
 21
149.451606
 31
0.0
  0
LINE
  5
128
100
AcDbEntity
  8
Layer_1
 62
7
100
AcDbLine
 10
148.493093
 20
149.451606
 30
0.0
 11
148.814492
 21
149.932614
 31
0.0
  0
LINE
  5
129
100
AcDbEntity
  8
Layer_1
 62
7
100
AcDbLine
 10
148.814492
 20
149.932614
 30
0.0
 11
148.927352
 21
150.500002
 31
0.0
  0
LINE
  5
12a
100
AcDbEntity
  8
Layer_1
 62
7
100
AcDbLine
 10
148.927352
 20
150.500002
 30
0.0
 11
148.810837
 21
151.077118
 31
0.0
  0
LINE
  5
12b
100
AcDbEntity
  8
Layer_1
 62
7
100
AcDbLine
 10
148.810837
 20
151.077118
 30
0.0
 11
148.493092
 21
151.548397
 31
0.0
  0
LINE
  5
12c
100
AcDbEntity
  8
Layer_1
 62
7
100
AcDbLine
 10
148.493092
 20
151.548397
 30
0.0
 11
148.021813
 21
151.866142
 31
0.0
  0
LINE
  5
12d
100
AcDbEntity
  8
Layer_1
 62
7
100
AcDbLine
 10
148.021813
 20
151.866142
 30
0.0
 11
147.444697
 21
151.982657
 31
0.0
  0
LINE
  5
12e
100
AcDbEntity
  8
Layer_1
 62
7
100
AcDbLine
 10
147.444697
 20
151.982657
 30
0.0
 11
146.867581
 21
151.866142
 31
0.0
  0
LINE
  5
12f
100
AcDbEntity
  8
Layer_1
 62
7
100
AcDbLine
 10
146.867581
 20
151.866142
 30
0.0
 11
146.396302
 21
151.548397
 31
0.0
  0
LINE
  5
130
100
AcDbEntity
  8
Layer_1
 62
7
100
AcDbLine
 10
146.396302
 20
151.548397
 30
0.0
 11
146.078557
 21
151.077118
 31
0.0
  0
LINE
  5
131
100
AcDbEntity
  8
Layer_1
 62
7
100
AcDbLine
 10
146.078557
 20
151.077118
 30
0.0
 11
145.962043
 21
150.500002
 31
0.0
  0
LINE
  5
132
100
AcDbEntity
  8
Layer_1
 62
7
100
AcDbLine
 10
145.962043
 20
150.500002
 30
0.0
 11
145.962043
 21
150.500002
 31
0.0
  0
LINE
  5
133
100
AcDbEntity
  8
Layer_1
 62
7
100
AcDbLine
 10
87.962049
 20
150.500002
 30
0.0
 11
88.074908
 21
149.932614
 31
0.0
  0
LINE
  5
134
100
AcDbEntity
  8
Layer_1
 62
7
100
AcDbLine
 10
88.074908
 20
149.932614
 30
0.0
 11
88.396307
 21
149.451606
 31
0.0
  0
LINE
  5
135
100
AcDbEntity
  8
Layer_1
 62
7
100
AcDbLine
 10
88.396307
 20
149.451606
 30
0.0
 11
88.877315
 21
149.130206
 31
0.0
  0
LINE
  5
136
100
AcDbEntity
  8
Layer_1
 62
7
100
AcDbLine
 10
88.877315
 20
149.130206
 30
0.0
 11
89.444703
 21
149.017345
 31
0.0
  0
LINE
  5
137
100
AcDbEntity
  8
Layer_1
 62
7
100
AcDbLine
 10
89.444703
 20
149.017345
 30
0.0
 11
90.012091
 21
149.130206
 31
0.0
  0
LINE
  5
138
100
AcDbEntity
  8
Layer_1
 62
7
100
AcDbLine
 10
90.012091
 20
149.130206
 30
0.0
 11
90.493099
 21
149.451606
 31
0.0
  0
LINE
  5
139
100
AcDbEntity
  8
Layer_1
 62
7
100
AcDbLine
 10
90.493099
 20
149.451606
 30
0.0
 11
90.814498
 21
149.932614
 31
0.0
  0
LINE
  5
13a
100
AcDbEntity
  8
Layer_1
 62
7
100
AcDbLine
 10
90.814498
 20
149.932614
 30
0.0
 11
90.927357
 21
150.500002
 31
0.0
  0
LINE
  5
13b
100
AcDbEntity
  8
Layer_1
 62
7
100
AcDbLine
 10
90.927357
 20
150.500002
 30
0.0
 11
90.810843
 21
151.077118
 31
0.0
  0
LINE
  5
13c
100
AcDbEntity
  8
Layer_1
 62
7
100
AcDbLine
 10
90.810843
 20
151.077118
 30
0.0
 11
90.493098
 21
151.548397
 31
0.0
  0
LINE
  5
13d
100
AcDbEntity
  8
Layer_1
 62
7
100
AcDbLine
 10
90.493098
 20
151.548397
 30
0.0
 11
90.021819
 21
151.866142
 31
0.0
  0
LINE
  5
13e
100
AcDbEntity
  8
Layer_1
 62
7
100
AcDbLine
 10
90.021819
 20
151.866142
 30
0.0
 11
89.444703
 21
151.982657
 31
0.0
  0
LINE
  5
13f
100
AcDbEntity
  8
Layer_1
 62
7
100
AcDbLine
 10
89.444703
 20
151.982657
 30
0.0
 11
88.867587
 21
151.866142
 31
0.0
  0
LINE
  5
140
100
AcDbEntity
  8
Layer_1
 62
7
100
AcDbLine
 10
88.867587
 20
151.866142
 30
0.0
 11
88.396308
 21
151.548397
 31
0.0
  0
LINE
  5
141
100
AcDbEntity
  8
Layer_1
 62
7
100
AcDbLine
 10
88.396308
 20
151.548397
 30
0.0
 11
88.078563
 21
151.077118
 31
0.0
  0
LINE
  5
142
100
AcDbEntity
  8
Layer_1
 62
7
100
AcDbLine
 10
88.078563
 20
151.077118
 30
0.0
 11
87.962049
 21
150.500002
 31
0.0
  0
LINE
  5
143
100
AcDbEntity
  8
Layer_1
 62
7
100
AcDbLine
 10
87.962049
 20
150.500002
 30
0.0
 11
87.962049
 21
150.500002
 31
0.0
  0
LINE
  5
144
100
AcDbEntity
  8
Layer_1
 62
7
100
AcDbLine
 10
155.769000
 20
153.768915
 30
0.0
 11
155.769000
 21
97.622127
 31
0.0
  0
LINE
  5
145
100
AcDbEntity
  8
Layer_1
 62
7
100
AcDbLine
 10
155.769000
 20
97.622127
 30
0.0
 11
147.591354
 21
97.622127
 31
0.0
  0
LINE
  5
146
100
AcDbEntity
  8
Layer_1
 62
7
100
AcDbLine
 10
147.591354
 20
97.622127
 30
0.0
 11
147.591354
 21
97.624949
 31
0.0
  0
LINE
  5
147
100
AcDbEntity
  8
Layer_1
 62
7
100
AcDbLine
 10
147.591354
 20
97.624949
 30
0.0
 11
147.536783
 21
97.622127
 31
0.0
  0
LINE
  5
148
100
AcDbEntity
  8
Layer_1
 62
7
100
AcDbLine
 10
147.536783
 20
97.622127
 30
0.0
 11
89.344985
 21
97.622127
 31
0.0
  0
LINE
  5
149
100
AcDbEntity
  8
Layer_1
 62
7
100
AcDbLine
 10
89.344985
 20
97.622127
 30
0.0
 11
88.637903
 21
97.692998
 31
0.0
  0
LINE
  5
14a
100
AcDbEntity
  8
Layer_1
 62
7
100
AcDbLine
 10
88.637903
 20
97.692998
 30
0.0
 11
87.980146
 21
97.896364
 31
0.0
  0
LINE
  5
14b
100
AcDbEntity
  8
Layer_1
 62
7
100
AcDbLine
 10
87.980146
 20
97.896364
 30
0.0
 11
87.385569
 21
98.218358
 31
0.0
  0
LINE
  5
14c
100
AcDbEntity
  8
Layer_1
 62
7
100
AcDbLine
 10
87.385569
 20
98.218358
 30
0.0
 11
86.868027
 21
98.645110
 31
0.0
  0
LINE
  5
14d
100
AcDbEntity
  8
Layer_1
 62
7
100
AcDbLine
 10
86.868027
 20
98.645110
 30
0.0
 11
86.441376
 21
99.162754
 31
0.0
  0
LINE
  5
14e
100
AcDbEntity
  8
Layer_1
 62
7
100
AcDbLine
 10
86.441376
 20
99.162754
 30
0.0
 11
86.119470
 21
99.757419
 31
0.0
  0
LINE
  5
14f
100
AcDbEntity
  8
Layer_1
 62
7
100
AcDbLine
 10
86.119470
 20
99.757419
 30
0.0
 11
85.916167
 21
100.415238
 31
0.0
  0
LINE
  5
150
100
AcDbEntity
  8
Layer_1
 62
7
100
AcDbLine
 10
85.916167
 20
100.415238
 30
0.0
 11
85.845320
 21
101.122343
 31
0.0
  0
LINE
  5
151
100
AcDbEntity
  8
Layer_1
 62
7
100
AcDbLine
 10
85.845320
 20
101.122343
 30
0.0
 11
85.845320
 21
150.268699
 31
0.0
  0
LINE
  5
152
100
AcDbEntity
  8
Layer_1
 62
7
100
AcDbLine
 10
85.845320
 20
150.268699
 30
0.0
 11
85.916167
 21
150.975780
 31
0.0
  0
LINE
  5
153
100
AcDbEntity
  8
Layer_1
 62
7
100
AcDbLine
 10
85.916167
 20
150.975780
 30
0.0
 11
86.119470
 21
151.633537
 31
0.0
  0
LINE
  5
154
100
AcDbEntity
  8
Layer_1
 62
7
100
AcDbLine
 10
86.119470
 20
151.633537
 30
0.0
 11
86.441376
 21
152.228114
 31
0.0
  0
LINE
  5
155
100
AcDbEntity
  8
Layer_1
 62
7
100
AcDbLine
 10
86.441376
 20
152.228114
 30
0.0
 11
86.868027
 21
152.745656
 31
0.0
  0
LINE
  5
156
100
AcDbEntity
  8
Layer_1
 62
7
100
AcDbLine
 10
86.868027
 20
152.745656
 30
0.0
 11
87.385569
 21
153.172308
 31
0.0
  0
LINE
  5
157
100
AcDbEntity
  8
Layer_1
 62
7
100
AcDbLine
 10
87.385569
 20
153.172308
 30
0.0
 11
87.980146
 21
153.494213
 31
0.0
  0
LINE
  5
158
100
AcDbEntity
  8
Layer_1
 62
7
100
AcDbLine
 10
87.980146
 20
153.494213
 30
0.0
 11
88.637903
 21
153.697517
 31
0.0
  0
LINE
  5
159
100
AcDbEntity
  8
Layer_1
 62
7
100
AcDbLine
 10
88.637903
 20
153.697517
 30
0.0
 11
89.344985
 21
153.768364
 31
0.0
  0
LINE
  5
15a
100
AcDbEntity
  8
Layer_1
 62
7
100
AcDbLine
 10
89.344985
 20
153.768364
 30
0.0
 11
147.536783
 21
153.768364
 31
0.0
  0
LINE
  5
15b
100
AcDbEntity
  8
Layer_1
 62
7
100
AcDbLine
 10
147.536783
 20
153.768364
 30
0.0
 11
147.591354
 21
153.765542
 31
0.0
  0
LINE
  5
15c
100
AcDbEntity
  8
Layer_1
 62
7
100
AcDbLine
 10
147.591354
 20
153.765542
 30
0.0
 11
147.591354
 21
153.768844
 31
0.0
  0
LINE
  5
15d
100
AcDbEntity
  8
Layer_1
 62
7
100
AcDbLine
 10
147.591354
 20
153.768844
 30
0.0
 11
155.769000
 21
153.768844
 31
0.0
  0
LINE
  5
15e
100
AcDbEntity
  8
Layer_1
 62
7
100
AcDbLine
 10
155.769000
 20
153.768844
 30
0.0
 11
155.769000
 21
153.768915
 31
0.0
  0
LINE
  5
15f
100
AcDbEntity
  8
Layer_1
 62
7
100
AcDbLine
 10
108.422271
 20
125.402646
 30
0.0
 11
102.577731
 21
125.402646
 31
0.0
  0
LINE
  5
160
100
AcDbEntity
  8
Layer_1
 62
7
100
AcDbLine
 10
102.577731
 20
125.402646
 30
0.0
 11
102.577731
 21
99.558107
 31
0.0
  0
LINE
  5
161
100
AcDbEntity
  8
Layer_1
 62
7
100
AcDbLine
 10
102.577731
 20
99.558107
 30
0.0
 11
108.422271
 21
99.558107
 31
0.0
  0
LINE
  5
162
100
AcDbEntity
  8
Layer_1
 62
7
100
AcDbLine
 10
108.422271
 20
99.558107
 30
0.0
 11
108.422271
 21
125.402646
 31
0.0
  0
LINE
  5
163
100
AcDbEntity
  8
Layer_1
 62
7
100
AcDbLine
 10
146.169510
 20
43.974536
 30
0.0
 11
146.286024
 21
43.397420
 31
0.0
  0
LINE
  5
164
100
AcDbEntity
  8
Layer_1
 62
7
100
AcDbLine
 10
146.286024
 20
43.397420
 30
0.0
 11
146.603769
 21
42.926141
 31
0.0
  0
LINE
  5
165
100
AcDbEntity
  8
Layer_1
 62
7
100
AcDbLine
 10
146.603769
 20
42.926141
 30
0.0
 11
147.075048
 21
42.608396
 31
0.0
  0
LINE
  5
166
100
AcDbEntity
  8
Layer_1
 62
7
100
AcDbLine
 10
147.075048
 20
42.608396
 30
0.0
 11
147.652164
 21
42.491881
 31
0.0
  0
LINE
  5
167
100
AcDbEntity
  8
Layer_1
 62
7
100
AcDbLine
 10
147.652164
 20
42.491881
 30
0.0
 11
148.229280
 21
42.608396
 31
0.0
  0
LINE
  5
168
100
AcDbEntity
  8
Layer_1
 62
7
100
AcDbLine
 10
148.229280
 20
42.608396
 30
0.0
 11
148.700559
 21
42.926141
 31
0.0
  0
LINE
  5
169
100
AcDbEntity
  8
Layer_1
 62
7
100
AcDbLine
 10
148.700559
 20
42.926141
 30
0.0
 11
149.018304
 21
43.397420
 31
0.0
  0
LINE
  5
16a
100
AcDbEntity
  8
Layer_1
 62
7
100
AcDbLine
 10
149.018304
 20
43.397420
 30
0.0
 11
149.134819
 21
43.974536
 31
0.0
  0
LINE
  5
16b
100
AcDbEntity
  8
Layer_1
 62
7
100
AcDbLine
 10
149.134819
 20
43.974536
 30
0.0
 11
149.018304
 21
44.551652
 31
0.0
  0
LINE
  5
16c
100
AcDbEntity
  8
Layer_1
 62
7
100
AcDbLine
 10
149.018304
 20
44.551652
 30
0.0
 11
148.700559
 21
45.022931
 31
0.0
  0
LINE
  5
16d
100
AcDbEntity
  8
Layer_1
 62
7
100
AcDbLine
 10
148.700559
 20
45.022931
 30
0.0
 11
148.229280
 21
45.340676
 31
0.0
  0
LINE
  5
16e
100
AcDbEntity
  8
Layer_1
 62
7
100
AcDbLine
 10
148.229280
 20
45.340676
 30
0.0
 11
147.652164
 21
45.457190
 31
0.0
  0
LINE
  5
16f
100
AcDbEntity
  8
Layer_1
 62
7
100
AcDbLine
 10
147.652164
 20
45.457190
 30
0.0
 11
147.075048
 21
45.340676
 31
0.0
  0
LINE
  5
170
100
AcDbEntity
  8
Layer_1
 62
7
100
AcDbLine
 10
147.075048
 20
45.340676
 30
0.0
 11
146.603769
 21
45.022931
 31
0.0
  0
LINE
  5
171
100
AcDbEntity
  8
Layer_1
 62
7
100
AcDbLine
 10
146.603769
 20
45.022931
 30
0.0
 11
146.286024
 21
44.551652
 31
0.0
  0
LINE
  5
172
100
AcDbEntity
  8
Layer_1
 62
7
100
AcDbLine
 10
146.286024
 20
44.551652
 30
0.0
 11
146.169510
 21
43.974536
 31
0.0
  0
LINE
  5
173
100
AcDbEntity
  8
Layer_1
 62
7
100
AcDbLine
 10
146.169510
 20
43.974536
 30
0.0
 11
146.169510
 21
43.974536
 31
0.0
  0
LINE
  5
174
100
AcDbEntity
  8
Layer_1
 62
7
100
AcDbLine
 10
88.169510
 20
43.974536
 30
0.0
 11
88.286025
 21
43.397420
 31
0.0
  0
LINE
  5
175
100
AcDbEntity
  8
Layer_1
 62
7
100
AcDbLine
 10
88.286025
 20
43.397420
 30
0.0
 11
88.603770
 21
42.926141
 31
0.0
  0
LINE
  5
176
100
AcDbEntity
  8
Layer_1
 62
7
100
AcDbLine
 10
88.603770
 20
42.926141
 30
0.0
 11
89.075049
 21
42.608396
 31
0.0
  0
LINE
  5
177
100
AcDbEntity
  8
Layer_1
 62
7
100
AcDbLine
 10
89.075049
 20
42.608396
 30
0.0
 11
89.652165
 21
42.491881
 31
0.0
  0
LINE
  5
178
100
AcDbEntity
  8
Layer_1
 62
7
100
AcDbLine
 10
89.652165
 20
42.491881
 30
0.0
 11
90.229281
 21
42.608396
 31
0.0
  0
LINE
  5
179
100
AcDbEntity
  8
Layer_1
 62
7
100
AcDbLine
 10
90.229281
 20
42.608396
 30
0.0
 11
90.700559
 21
42.926141
 31
0.0
  0
LINE
  5
17a
100
AcDbEntity
  8
Layer_1
 62
7
100
AcDbLine
 10
90.700559
 20
42.926141
 30
0.0
 11
91.018305
 21
43.397420
 31
0.0
  0
LINE
  5
17b
100
AcDbEntity
  8
Layer_1
 62
7
100
AcDbLine
 10
91.018305
 20
43.397420
 30
0.0
 11
91.134819
 21
43.974536
 31
0.0
  0
LINE
  5
17c
100
AcDbEntity
  8
Layer_1
 62
7
100
AcDbLine
 10
91.134819
 20
43.974536
 30
0.0
 11
91.018305
 21
44.551652
 31
0.0
  0
LINE
  5
17d
100
AcDbEntity
  8
Layer_1
 62
7
100
AcDbLine
 10
91.018305
 20
44.551652
 30
0.0
 11
90.700559
 21
45.022931
 31
0.0
  0
LINE
  5
17e
100
AcDbEntity
  8
Layer_1
 62
7
100
AcDbLine
 10
90.700559
 20
45.022931
 30
0.0
 11
90.229281
 21
45.340676
 31
0.0
  0
LINE
  5
17f
100
AcDbEntity
  8
Layer_1
 62
7
100
AcDbLine
 10
90.229281
 20
45.340676
 30
0.0
 11
89.652165
 21
45.457190
 31
0.0
  0
LINE
  5
180
100
AcDbEntity
  8
Layer_1
 62
7
100
AcDbLine
 10
89.652165
 20
45.457190
 30
0.0
 11
89.075049
 21
45.340676
 31
0.0
  0
LINE
  5
181
100
AcDbEntity
  8
Layer_1
 62
7
100
AcDbLine
 10
89.075049
 20
45.340676
 30
0.0
 11
88.603770
 21
45.022931
 31
0.0
  0
LINE
  5
182
100
AcDbEntity
  8
Layer_1
 62
7
100
AcDbLine
 10
88.603770
 20
45.022931
 30
0.0
 11
88.286025
 21
44.551652
 31
0.0
  0
LINE
  5
183
100
AcDbEntity
  8
Layer_1
 62
7
100
AcDbLine
 10
88.286025
 20
44.551652
 30
0.0
 11
88.169510
 21
43.974536
 31
0.0
  0
LINE
  5
184
100
AcDbEntity
  8
Layer_1
 62
7
100
AcDbLine
 10
88.169510
 20
43.974536
 30
0.0
 11
88.169510
 21
43.974536
 31
0.0
  0
LINE
  5
185
100
AcDbEntity
  8
Layer_1
 62
7
100
AcDbLine
 10
146.169510
 20
92.974540
 30
0.0
 11
146.282369
 21
92.407151
 31
0.0
  0
LINE
  5
186
100
AcDbEntity
  8
Layer_1
 62
7
100
AcDbLine
 10
146.282369
 20
92.407151
 30
0.0
 11
146.603768
 21
91.926143
 31
0.0
  0
LINE
  5
187
100
AcDbEntity
  8
Layer_1
 62
7
100
AcDbLine
 10
146.603768
 20
91.926143
 30
0.0
 11
147.084776
 21
91.604743
 31
0.0
  0
LINE
  5
188
100
AcDbEntity
  8
Layer_1
 62
7
100
AcDbLine
 10
147.084776
 20
91.604743
 30
0.0
 11
147.652164
 21
91.491882
 31
0.0
  0
LINE
  5
189
100
AcDbEntity
  8
Layer_1
 62
7
100
AcDbLine
 10
147.652164
 20
91.491882
 30
0.0
 11
148.219552
 21
91.604743
 31
0.0
  0
LINE
  5
18a
100
AcDbEntity
  8
Layer_1
 62
7
100
AcDbLine
 10
148.219552
 20
91.604743
 30
0.0
 11
148.700560
 21
91.926143
 31
0.0
  0
LINE
  5
18b
100
AcDbEntity
  8
Layer_1
 62
7
100
AcDbLine
 10
148.700560
 20
91.926143
 30
0.0
 11
149.021959
 21
92.407151
 31
0.0
  0
LINE
  5
18c
100
AcDbEntity
  8
Layer_1
 62
7
100
AcDbLine
 10
149.021959
 20
92.407151
 30
0.0
 11
149.134819
 21
92.974540
 31
0.0
  0
LINE
  5
18d
100
AcDbEntity
  8
Layer_1
 62
7
100
AcDbLine
 10
149.134819
 20
92.974540
 30
0.0
 11
149.018304
 21
93.551655
 31
0.0
  0
LINE
  5
18e
100
AcDbEntity
  8
Layer_1
 62
7
100
AcDbLine
 10
149.018304
 20
93.551655
 30
0.0
 11
148.700559
 21
94.022934
 31
0.0
  0
LINE
  5
18f
100
AcDbEntity
  8
Layer_1
 62
7
100
AcDbLine
 10
148.700559
 20
94.022934
 30
0.0
 11
148.229280
 21
94.340680
 31
0.0
  0
LINE
  5
190
100
AcDbEntity
  8
Layer_1
 62
7
100
AcDbLine
 10
148.229280
 20
94.340680
 30
0.0
 11
147.652164
 21
94.457194
 31
0.0
  0
LINE
  5
191
100
AcDbEntity
  8
Layer_1
 62
7
100
AcDbLine
 10
147.652164
 20
94.457194
 30
0.0
 11
147.075048
 21
94.340680
 31
0.0
  0
LINE
  5
192
100
AcDbEntity
  8
Layer_1
 62
7
100
AcDbLine
 10
147.075048
 20
94.340680
 30
0.0
 11
146.603769
 21
94.022934
 31
0.0
  0
LINE
  5
193
100
AcDbEntity
  8
Layer_1
 62
7
100
AcDbLine
 10
146.603769
 20
94.022934
 30
0.0
 11
146.286024
 21
93.551655
 31
0.0
  0
LINE
  5
194
100
AcDbEntity
  8
Layer_1
 62
7
100
AcDbLine
 10
146.286024
 20
93.551655
 30
0.0
 11
146.169510
 21
92.974540
 31
0.0
  0
LINE
  5
195
100
AcDbEntity
  8
Layer_1
 62
7
100
AcDbLine
 10
146.169510
 20
92.974540
 30
0.0
 11
146.169510
 21
92.974540
 31
0.0
  0
LINE
  5
196
100
AcDbEntity
  8
Layer_1
 62
7
100
AcDbLine
 10
88.169516
 20
92.974540
 30
0.0
 11
88.282375
 21
92.407151
 31
0.0
  0
LINE
  5
197
100
AcDbEntity
  8
Layer_1
 62
7
100
AcDbLine
 10
88.282375
 20
92.407151
 30
0.0
 11
88.603774
 21
91.926143
 31
0.0
  0
LINE
  5
198
100
AcDbEntity
  8
Layer_1
 62
7
100
AcDbLine
 10
88.603774
 20
91.926143
 30
0.0
 11
89.084782
 21
91.604743
 31
0.0
  0
LINE
  5
199
100
AcDbEntity
  8
Layer_1
 62
7
100
AcDbLine
 10
89.084782
 20
91.604743
 30
0.0
 11
89.652170
 21
91.491882
 31
0.0
  0
LINE
  5
19a
100
AcDbEntity
  8
Layer_1
 62
7
100
AcDbLine
 10
89.652170
 20
91.491882
 30
0.0
 11
90.219558
 21
91.604743
 31
0.0
  0
LINE
  5
19b
100
AcDbEntity
  8
Layer_1
 62
7
100
AcDbLine
 10
90.219558
 20
91.604743
 30
0.0
 11
90.700566
 21
91.926143
 31
0.0
  0
LINE
  5
19c
100
AcDbEntity
  8
Layer_1
 62
7
100
AcDbLine
 10
90.700566
 20
91.926143
 30
0.0
 11
91.021965
 21
92.407151
 31
0.0
  0
LINE
  5
19d
100
AcDbEntity
  8
Layer_1
 62
7
100
AcDbLine
 10
91.021965
 20
92.407151
 30
0.0
 11
91.134825
 21
92.974540
 31
0.0
  0
LINE
  5
19e
100
AcDbEntity
  8
Layer_1
 62
7
100
AcDbLine
 10
91.134825
 20
92.974540
 30
0.0
 11
91.018310
 21
93.551655
 31
0.0
  0
LINE
  5
19f
100
AcDbEntity
  8
Layer_1
 62
7
100
AcDbLine
 10
91.018310
 20
93.551655
 30
0.0
 11
90.700565
 21
94.022934
 31
0.0
  0
LINE
  5
1a0
100
AcDbEntity
  8
Layer_1
 62
7
100
AcDbLine
 10
90.700565
 20
94.022934
 30
0.0
 11
90.229286
 21
94.340680
 31
0.0
  0
LINE
  5
1a1
100
AcDbEntity
  8
Layer_1
 62
7
100
AcDbLine
 10
90.229286
 20
94.340680
 30
0.0
 11
89.652170
 21
94.457194
 31
0.0
  0
LINE
  5
1a2
100
AcDbEntity
  8
Layer_1
 62
7
100
AcDbLine
 10
89.652170
 20
94.457194
 30
0.0
 11
89.075054
 21
94.340680
 31
0.0
  0
LINE
  5
1a3
100
AcDbEntity
  8
Layer_1
 62
7
100
AcDbLine
 10
89.075054
 20
94.340680
 30
0.0
 11
88.603775
 21
94.022934
 31
0.0
  0
LINE
  5
1a4
100
AcDbEntity
  8
Layer_1
 62
7
100
AcDbLine
 10
88.603775
 20
94.022934
 30
0.0
 11
88.286030
 21
93.551655
 31
0.0
  0
LINE
  5
1a5
100
AcDbEntity
  8
Layer_1
 62
7
100
AcDbLine
 10
88.286030
 20
93.551655
 30
0.0
 11
88.169516
 21
92.974540
 31
0.0
  0
LINE
  5
1a6
100
AcDbEntity
  8
Layer_1
 62
7
100
AcDbLine
 10
88.169516
 20
92.974540
 30
0.0
 11
88.169516
 21
92.974540
 31
0.0
  0
LINE
  5
1a7
100
AcDbEntity
  8
Layer_1
 62
7
100
AcDbLine
 10
155.976001
 20
96.243452
 30
0.0
 11
155.976001
 21
40.096664
 31
0.0
  0
LINE
  5
1a8
100
AcDbEntity
  8
Layer_1
 62
7
100
AcDbLine
 10
155.976001
 20
40.096664
 30
0.0
 11
147.798821
 21
40.096664
 31
0.0
  0
LINE
  5
1a9
100
AcDbEntity
  8
Layer_1
 62
7
100
AcDbLine
 10
147.798821
 20
40.096664
 30
0.0
 11
147.798821
 21
40.099487
 31
0.0
  0
LINE
  5
1aa
100
AcDbEntity
  8
Layer_1
 62
7
100
AcDbLine
 10
147.798821
 20
40.099487
 30
0.0
 11
147.744251
 21
40.096664
 31
0.0
  0
LINE
  5
1ab
100
AcDbEntity
  8
Layer_1
 62
7
100
AcDbLine
 10
147.744251
 20
40.096664
 30
0.0
 11
89.552453
 21
40.096664
 31
0.0
  0
LINE
  5
1ac
100
AcDbEntity
  8
Layer_1
 62
7
100
AcDbLine
 10
89.552453
 20
40.096664
 30
0.0
 11
88.845371
 21
40.167535
 31
0.0
  0
LINE
  5
1ad
100
AcDbEntity
  8
Layer_1
 62
7
100
AcDbLine
 10
88.845371
 20
40.167535
 30
0.0
 11
88.187613
 21
40.370901
 31
0.0
  0
LINE
  5
1ae
100
AcDbEntity
  8
Layer_1
 62
7
100
AcDbLine
 10
88.187613
 20
40.370901
 30
0.0
 11
87.593036
 21
40.692895
 31
0.0
  0
LINE
  5
1af
100
AcDbEntity
  8
Layer_1
 62
7
100
AcDbLine
 10
87.593036
 20
40.692895
 30
0.0
 11
87.075494
 21
41.119648
 31
0.0
  0
LINE
  5
1b0
100
AcDbEntity
  8
Layer_1
 62
7
100
AcDbLine
 10
87.075494
 20
41.119648
 30
0.0
 11
86.648843
 21
41.637291
 31
0.0
  0
LINE
  5
1b1
100
AcDbEntity
  8
Layer_1
 62
7
100
AcDbLine
 10
86.648843
 20
41.637291
 30
0.0
 11
86.326938
 21
42.231956
 31
0.0
  0
LINE
  5
1b2
100
AcDbEntity
  8
Layer_1
 62
7
100
AcDbLine
 10
86.326938
 20
42.231956
 30
0.0
 11
86.123634
 21
42.889775
 31
0.0
  0
LINE
  5
1b3
100
AcDbEntity
  8
Layer_1
 62
7
100
AcDbLine
 10
86.123634
 20
42.889775
 30
0.0
 11
86.052787
 21
43.596880
 31
0.0
  0
LINE
  5
1b4
100
AcDbEntity
  8
Layer_1
 62
7
100
AcDbLine
 10
86.052787
 20
43.596880
 30
0.0
 11
86.052787
 21
92.743236
 31
0.0
  0
LINE
  5
1b5
100
AcDbEntity
  8
Layer_1
 62
7
100
AcDbLine
 10
86.052787
 20
92.743236
 30
0.0
 11
86.123634
 21
93.450317
 31
0.0
  0
LINE
  5
1b6
100
AcDbEntity
  8
Layer_1
 62
7
100
AcDbLine
 10
86.123634
 20
93.450317
 30
0.0
 11
86.326938
 21
94.108074
 31
0.0
  0
LINE
  5
1b7
100
AcDbEntity
  8
Layer_1
 62
7
100
AcDbLine
 10
86.326938
 20
94.108074
 30
0.0
 11
86.648843
 21
94.702651
 31
0.0
  0
LINE
  5
1b8
100
AcDbEntity
  8
Layer_1
 62
7
100
AcDbLine
 10
86.648843
 20
94.702651
 30
0.0
 11
87.075494
 21
95.220193
 31
0.0
  0
LINE
  5
1b9
100
AcDbEntity
  8
Layer_1
 62
7
100
AcDbLine
 10
87.075494
 20
95.220193
 30
0.0
 11
87.593036
 21
95.646845
 31
0.0
  0
LINE
  5
1ba
100
AcDbEntity
  8
Layer_1
 62
7
100
AcDbLine
 10
87.593036
 20
95.646845
 30
0.0
 11
88.187613
 21
95.968750
 31
0.0
  0
LINE
  5
1bb
100
AcDbEntity
  8
Layer_1
 62
7
100
AcDbLine
 10
88.187613
 20
95.968750
 30
0.0
 11
88.845371
 21
96.172054
 31
0.0
  0
LINE
  5
1bc
100
AcDbEntity
  8
Layer_1
 62
7
100
AcDbLine
 10
88.845371
 20
96.172054
 30
0.0
 11
89.552453
 21
96.242901
 31
0.0
  0
LINE
  5
1bd
100
AcDbEntity
  8
Layer_1
 62
7
100
AcDbLine
 10
89.552453
 20
96.242901
 30
0.0
 11
147.744251
 21
96.242901
 31
0.0
  0
LINE
  5
1be
100
AcDbEntity
  8
Layer_1
 62
7
100
AcDbLine
 10
147.744251
 20
96.242901
 30
0.0
 11
147.798821
 21
96.240079
 31
0.0
  0
LINE
  5
1bf
100
AcDbEntity
  8
Layer_1
 62
7
100
AcDbLine
 10
147.798821
 20
96.240079
 30
0.0
 11
147.798821
 21
96.243381
 31
0.0
  0
LINE
  5
1c0
100
AcDbEntity
  8
Layer_1
 62
7
100
AcDbLine
 10
147.798821
 20
96.243381
 30
0.0
 11
153.976290
 21
96.243381
 31
0.0
  0
LINE
  5
1c1
100
AcDbEntity
  8
Layer_1
 62
7
100
AcDbLine
 10
153.976290
 20
96.243381
 30
0.0
 11
155.976001
 21
96.243452
 31
0.0
  0
LINE
  5
1c2
100
AcDbEntity
  8
Layer_1
 62
7
100
AcDbLine
 10
75.227722
 20
101.334427
 30
0.0
 11
75.344236
 21
100.757311
 31
0.0
  0
LINE
  5
1c3
100
AcDbEntity
  8
Layer_1
 62
7
100
AcDbLine
 10
75.344236
 20
100.757311
 30
0.0
 11
75.661981
 21
100.286032
 31
0.0
  0
LINE
  5
1c4
100
AcDbEntity
  8
Layer_1
 62
7
100
AcDbLine
 10
75.661981
 20
100.286032
 30
0.0
 11
76.133260
 21
99.968287
 31
0.0
  0
LINE
  5
1c5
100
AcDbEntity
  8
Layer_1
 62
7
100
AcDbLine
 10
76.133260
 20
99.968287
 30
0.0
 11
76.710376
 21
99.851773
 31
0.0
  0
LINE
  5
1c6
100
AcDbEntity
  8
Layer_1
 62
7
100
AcDbLine
 10
76.710376
 20
99.851773
 30
0.0
 11
77.287492
 21
99.968287
 31
0.0
  0
LINE
  5
1c7
100
AcDbEntity
  8
Layer_1
 62
7
100
AcDbLine
 10
77.287492
 20
99.968287
 30
0.0
 11
77.758771
 21
100.286032
 31
0.0
  0
LINE
  5
1c8
100
AcDbEntity
  8
Layer_1
 62
7
100
AcDbLine
 10
77.758771
 20
100.286032
 30
0.0
 11
78.076516
 21
100.757311
 31
0.0
  0
LINE
  5
1c9
100
AcDbEntity
  8
Layer_1
 62
7
100
AcDbLine
 10
78.076516
 20
100.757311
 30
0.0
 11
78.193031
 21
101.334427
 31
0.0
  0
LINE
  5
1ca
100
AcDbEntity
  8
Layer_1
 62
7
100
AcDbLine
 10
78.193031
 20
101.334427
 30
0.0
 11
78.076516
 21
101.911543
 31
0.0
  0
LINE
  5
1cb
100
AcDbEntity
  8
Layer_1
 62
7
100
AcDbLine
 10
78.076516
 20
101.911543
 30
0.0
 11
77.758771
 21
102.382822
 31
0.0
  0
LINE
  5
1cc
100
AcDbEntity
  8
Layer_1
 62
7
100
AcDbLine
 10
77.758771
 20
102.382822
 30
0.0
 11
77.287492
 21
102.700567
 31
0.0
  0
LINE
  5
1cd
100
AcDbEntity
  8
Layer_1
 62
7
100
AcDbLine
 10
77.287492
 20
102.700567
 30
0.0
 11
76.710376
 21
102.817082
 31
0.0
  0
LINE
  5
1ce
100
AcDbEntity
  8
Layer_1
 62
7
100
AcDbLine
 10
76.710376
 20
102.817082
 30
0.0
 11
76.133260
 21
102.700567
 31
0.0
  0
LINE
  5
1cf
100
AcDbEntity
  8
Layer_1
 62
7
100
AcDbLine
 10
76.133260
 20
102.700567
 30
0.0
 11
75.661981
 21
102.382822
 31
0.0
  0
LINE
  5
1d0
100
AcDbEntity
  8
Layer_1
 62
7
100
AcDbLine
 10
75.661981
 20
102.382822
 30
0.0
 11
75.344236
 21
101.911543
 31
0.0
  0
LINE
  5
1d1
100
AcDbEntity
  8
Layer_1
 62
7
100
AcDbLine
 10
75.344236
 20
101.911543
 30
0.0
 11
75.227722
 21
101.334427
 31
0.0
  0
LINE
  5
1d2
100
AcDbEntity
  8
Layer_1
 62
7
100
AcDbLine
 10
75.227722
 20
101.334427
 30
0.0
 11
75.227722
 21
101.334427
 31
0.0
  0
LINE
  5
1d3
100
AcDbEntity
  8
Layer_1
 62
7
100
AcDbLine
 10
17.227722
 20
101.334427
 30
0.0
 11
17.344237
 21
100.757311
 31
0.0
  0
LINE
  5
1d4
100
AcDbEntity
  8
Layer_1
 62
7
100
AcDbLine
 10
17.344237
 20
100.757311
 30
0.0
 11
17.661982
 21
100.286032
 31
0.0
  0
LINE
  5
1d5
100
AcDbEntity
  8
Layer_1
 62
7
100
AcDbLine
 10
17.661982
 20
100.286032
 30
0.0
 11
18.133261
 21
99.968287
 31
0.0
  0
LINE
  5
1d6
100
AcDbEntity
  8
Layer_1
 62
7
100
AcDbLine
 10
18.133261
 20
99.968287
 30
0.0
 11
18.710377
 21
99.851773
 31
0.0
  0
LINE
  5
1d7
100
AcDbEntity
  8
Layer_1
 62
7
100
AcDbLine
 10
18.710377
 20
99.851773
 30
0.0
 11
19.287493
 21
99.968287
 31
0.0
  0
LINE
  5
1d8
100
AcDbEntity
  8
Layer_1
 62
7
100
AcDbLine
 10
19.287493
 20
99.968287
 30
0.0
 11
19.758772
 21
100.286032
 31
0.0
  0
LINE
  5
1d9
100
AcDbEntity
  8
Layer_1
 62
7
100
AcDbLine
 10
19.758772
 20
100.286032
 30
0.0
 11
20.076517
 21
100.757311
 31
0.0
  0
LINE
  5
1da
100
AcDbEntity
  8
Layer_1
 62
7
100
AcDbLine
 10
20.076517
 20
100.757311
 30
0.0
 11
20.193031
 21
101.334427
 31
0.0
  0
LINE
  5
1db
100
AcDbEntity
  8
Layer_1
 62
7
100
AcDbLine
 10
20.193031
 20
101.334427
 30
0.0
 11
20.076517
 21
101.911543
 31
0.0
  0
LINE
  5
1dc
100
AcDbEntity
  8
Layer_1
 62
7
100
AcDbLine
 10
20.076517
 20
101.911543
 30
0.0
 11
19.758772
 21
102.382822
 31
0.0
  0
LINE
  5
1dd
100
AcDbEntity
  8
Layer_1
 62
7
100
AcDbLine
 10
19.758772
 20
102.382822
 30
0.0
 11
19.287493
 21
102.700567
 31
0.0
  0
LINE
  5
1de
100
AcDbEntity
  8
Layer_1
 62
7
100
AcDbLine
 10
19.287493
 20
102.700567
 30
0.0
 11
18.710377
 21
102.817082
 31
0.0
  0
LINE
  5
1df
100
AcDbEntity
  8
Layer_1
 62
7
100
AcDbLine
 10
18.710377
 20
102.817082
 30
0.0
 11
18.133261
 21
102.700567
 31
0.0
  0
LINE
  5
1e0
100
AcDbEntity
  8
Layer_1
 62
7
100
AcDbLine
 10
18.133261
 20
102.700567
 30
0.0
 11
17.661982
 21
102.382822
 31
0.0
  0
LINE
  5
1e1
100
AcDbEntity
  8
Layer_1
 62
7
100
AcDbLine
 10
17.661982
 20
102.382822
 30
0.0
 11
17.344237
 21
101.911543
 31
0.0
  0
LINE
  5
1e2
100
AcDbEntity
  8
Layer_1
 62
7
100
AcDbLine
 10
17.344237
 20
101.911543
 30
0.0
 11
17.227722
 21
101.334427
 31
0.0
  0
LINE
  5
1e3
100
AcDbEntity
  8
Layer_1
 62
7
100
AcDbLine
 10
17.227722
 20
101.334427
 30
0.0
 11
17.227722
 21
101.334427
 31
0.0
  0
LINE
  5
1e4
100
AcDbEntity
  8
Layer_1
 62
7
100
AcDbLine
 10
75.227722
 20
150.334431
 30
0.0
 11
75.340581
 21
149.767043
 31
0.0
  0
LINE
  5
1e5
100
AcDbEntity
  8
Layer_1
 62
7
100
AcDbLine
 10
75.340581
 20
149.767043
 30
0.0
 11
75.661980
 21
149.286034
 31
0.0
  0
LINE
  5
1e6
100
AcDbEntity
  8
Layer_1
 62
7
100
AcDbLine
 10
75.661980
 20
149.286034
 30
0.0
 11
76.142988
 21
148.964634
 31
0.0
  0
LINE
  5
1e7
100
AcDbEntity
  8
Layer_1
 62
7
100
AcDbLine
 10
76.142988
 20
148.964634
 30
0.0
 11
76.710376
 21
148.851774
 31
0.0
  0
LINE
  5
1e8
100
AcDbEntity
  8
Layer_1
 62
7
100
AcDbLine
 10
76.710376
 20
148.851774
 30
0.0
 11
77.277764
 21
148.964634
 31
0.0
  0
LINE
  5
1e9
100
AcDbEntity
  8
Layer_1
 62
7
100
AcDbLine
 10
77.277764
 20
148.964634
 30
0.0
 11
77.758772
 21
149.286034
 31
0.0
  0
LINE
  5
1ea
100
AcDbEntity
  8
Layer_1
 62
7
100
AcDbLine
 10
77.758772
 20
149.286034
 30
0.0
 11
78.080171
 21
149.767043
 31
0.0
  0
LINE
  5
1eb
100
AcDbEntity
  8
Layer_1
 62
7
100
AcDbLine
 10
78.080171
 20
149.767043
 30
0.0
 11
78.193031
 21
150.334431
 31
0.0
  0
LINE
  5
1ec
100
AcDbEntity
  8
Layer_1
 62
7
100
AcDbLine
 10
78.193031
 20
150.334431
 30
0.0
 11
78.076516
 21
150.911547
 31
0.0
  0
LINE
  5
1ed
100
AcDbEntity
  8
Layer_1
 62
7
100
AcDbLine
 10
78.076516
 20
150.911547
 30
0.0
 11
77.758771
 21
151.382826
 31
0.0
  0
LINE
  5
1ee
100
AcDbEntity
  8
Layer_1
 62
7
100
AcDbLine
 10
77.758771
 20
151.382826
 30
0.0
 11
77.287492
 21
151.700571
 31
0.0
  0
LINE
  5
1ef
100
AcDbEntity
  8
Layer_1
 62
7
100
AcDbLine
 10
77.287492
 20
151.700571
 30
0.0
 11
76.710376
 21
151.817085
 31
0.0
  0
LINE
  5
1f0
100
AcDbEntity
  8
Layer_1
 62
7
100
AcDbLine
 10
76.710376
 20
151.817085
 30
0.0
 11
76.133260
 21
151.700571
 31
0.0
  0
LINE
  5
1f1
100
AcDbEntity
  8
Layer_1
 62
7
100
AcDbLine
 10
76.133260
 20
151.700571
 30
0.0
 11
75.661981
 21
151.382826
 31
0.0
  0
LINE
  5
1f2
100
AcDbEntity
  8
Layer_1
 62
7
100
AcDbLine
 10
75.661981
 20
151.382826
 30
0.0
 11
75.344236
 21
150.911547
 31
0.0
  0
LINE
  5
1f3
100
AcDbEntity
  8
Layer_1
 62
7
100
AcDbLine
 10
75.344236
 20
150.911547
 30
0.0
 11
75.227722
 21
150.334431
 31
0.0
  0
LINE
  5
1f4
100
AcDbEntity
  8
Layer_1
 62
7
100
AcDbLine
 10
75.227722
 20
150.334431
 30
0.0
 11
75.227722
 21
150.334431
 31
0.0
  0
LINE
  5
1f5
100
AcDbEntity
  8
Layer_1
 62
7
100
AcDbLine
 10
17.227728
 20
150.334431
 30
0.0
 11
17.340587
 21
149.767043
 31
0.0
  0
LINE
  5
1f6
100
AcDbEntity
  8
Layer_1
 62
7
100
AcDbLine
 10
17.340587
 20
149.767043
 30
0.0
 11
17.661986
 21
149.286034
 31
0.0
  0
LINE
  5
1f7
100
AcDbEntity
  8
Layer_1
 62
7
100
AcDbLine
 10
17.661986
 20
149.286034
 30
0.0
 11
18.142994
 21
148.964634
 31
0.0
  0
LINE
  5
1f8
100
AcDbEntity
  8
Layer_1
 62
7
100
AcDbLine
 10
18.142994
 20
148.964634
 30
0.0
 11
18.710382
 21
148.851774
 31
0.0
  0
LINE
  5
1f9
100
AcDbEntity
  8
Layer_1
 62
7
100
AcDbLine
 10
18.710382
 20
148.851774
 30
0.0
 11
19.277770
 21
148.964634
 31
0.0
  0
LINE
  5
1fa
100
AcDbEntity
  8
Layer_1
 62
7
100
AcDbLine
 10
19.277770
 20
148.964634
 30
0.0
 11
19.758778
 21
149.286034
 31
0.0
  0
LINE
  5
1fb
100
AcDbEntity
  8
Layer_1
 62
7
100
AcDbLine
 10
19.758778
 20
149.286034
 30
0.0
 11
20.080177
 21
149.767043
 31
0.0
  0
LINE
  5
1fc
100
AcDbEntity
  8
Layer_1
 62
7
100
AcDbLine
 10
20.080177
 20
149.767043
 30
0.0
 11
20.193037
 21
150.334431
 31
0.0
  0
LINE
  5
1fd
100
AcDbEntity
  8
Layer_1
 62
7
100
AcDbLine
 10
20.193037
 20
150.334431
 30
0.0
 11
20.076522
 21
150.911547
 31
0.0
  0
LINE
  5
1fe
100
AcDbEntity
  8
Layer_1
 62
7
100
AcDbLine
 10
20.076522
 20
150.911547
 30
0.0
 11
19.758777
 21
151.382826
 31
0.0
  0
LINE
  5
1ff
100
AcDbEntity
  8
Layer_1
 62
7
100
AcDbLine
 10
19.758777
 20
151.382826
 30
0.0
 11
19.287498
 21
151.700571
 31
0.0
  0
LINE
  5
200
100
AcDbEntity
  8
Layer_1
 62
7
100
AcDbLine
 10
19.287498
 20
151.700571
 30
0.0
 11
18.710382
 21
151.817085
 31
0.0
  0
LINE
  5
201
100
AcDbEntity
  8
Layer_1
 62
7
100
AcDbLine
 10
18.710382
 20
151.817085
 30
0.0
 11
18.133266
 21
151.700571
 31
0.0
  0
LINE
  5
202
100
AcDbEntity
  8
Layer_1
 62
7
100
AcDbLine
 10
18.133266
 20
151.700571
 30
0.0
 11
17.661987
 21
151.382826
 31
0.0
  0
LINE
  5
203
100
AcDbEntity
  8
Layer_1
 62
7
100
AcDbLine
 10
17.661987
 20
151.382826
 30
0.0
 11
17.344242
 21
150.911547
 31
0.0
  0
LINE
  5
204
100
AcDbEntity
  8
Layer_1
 62
7
100
AcDbLine
 10
17.344242
 20
150.911547
 30
0.0
 11
17.227728
 21
150.334431
 31
0.0
  0
LINE
  5
205
100
AcDbEntity
  8
Layer_1
 62
7
100
AcDbLine
 10
17.227728
 20
150.334431
 30
0.0
 11
17.227728
 21
150.334431
 31
0.0
  0
LINE
  5
206
100
AcDbEntity
  8
Layer_1
 62
7
100
AcDbLine
 10
85.035001
 20
153.603343
 30
0.0
 11
85.035001
 21
97.456556
 31
0.0
  0
LINE
  5
207
100
AcDbEntity
  8
Layer_1
 62
7
100
AcDbLine
 10
85.035001
 20
97.456556
 30
0.0
 11
76.857033
 21
97.456556
 31
0.0
  0
LINE
  5
208
100
AcDbEntity
  8
Layer_1
 62
7
100
AcDbLine
 10
76.857033
 20
97.456556
 30
0.0
 11
76.857033
 21
97.459378
 31
0.0
  0
LINE
  5
209
100
AcDbEntity
  8
Layer_1
 62
7
100
AcDbLine
 10
76.857033
 20
97.459378
 30
0.0
 11
76.802463
 21
97.456556
 31
0.0
  0
LINE
  5
20a
100
AcDbEntity
  8
Layer_1
 62
7
100
AcDbLine
 10
76.802463
 20
97.456556
 30
0.0
 11
18.610665
 21
97.456556
 31
0.0
  0
LINE
  5
20b
100
AcDbEntity
  8
Layer_1
 62
7
100
AcDbLine
 10
18.610665
 20
97.456556
 30
0.0
 11
17.903583
 21
97.527426
 31
0.0
  0
LINE
  5
20c
100
AcDbEntity
  8
Layer_1
 62
7
100
AcDbLine
 10
17.903583
 20
97.527426
 30
0.0
 11
17.245825
 21
97.730793
 31
0.0
  0
LINE
  5
20d
100
AcDbEntity
  8
Layer_1
 62
7
100
AcDbLine
 10
17.245825
 20
97.730793
 30
0.0
 11
16.651248
 21
98.052786
 31
0.0
  0
LINE
  5
20e
100
AcDbEntity
  8
Layer_1
 62
7
100
AcDbLine
 10
16.651248
 20
98.052786
 30
0.0
 11
16.133706
 21
98.479539
 31
0.0
  0
LINE
  5
20f
100
AcDbEntity
  8
Layer_1
 62
7
100
AcDbLine
 10
16.133706
 20
98.479539
 30
0.0
 11
15.707055
 21
98.997182
 31
0.0
  0
LINE
  5
210
100
AcDbEntity
  8
Layer_1
 62
7
100
AcDbLine
 10
15.707055
 20
98.997182
 30
0.0
 11
15.385150
 21
99.591848
 31
0.0
  0
LINE
  5
211
100
AcDbEntity
  8
Layer_1
 62
7
100
AcDbLine
 10
15.385150
 20
99.591848
 30
0.0
 11
15.181846
 21
100.249667
 31
0.0
  0
LINE
  5
212
100
AcDbEntity
  8
Layer_1
 62
7
100
AcDbLine
 10
15.181846
 20
100.249667
 30
0.0
 11
15.110999
 21
100.956772
 31
0.0
  0
LINE
  5
213
100
AcDbEntity
  8
Layer_1
 62
7
100
AcDbLine
 10
15.110999
 20
100.956772
 30
0.0
 11
15.110999
 21
150.103127
 31
0.0
  0
LINE
  5
214
100
AcDbEntity
  8
Layer_1
 62
7
100
AcDbLine
 10
15.110999
 20
150.103127
 30
0.0
 11
15.181846
 21
150.810208
 31
0.0
  0
LINE
  5
215
100
AcDbEntity
  8
Layer_1
 62
7
100
AcDbLine
 10
15.181846
 20
150.810208
 30
0.0
 11
15.385150
 21
151.467965
 31
0.0
  0
LINE
  5
216
100
AcDbEntity
  8
Layer_1
 62
7
100
AcDbLine
 10
15.385150
 20
151.467965
 30
0.0
 11
15.707055
 21
152.062543
 31
0.0
  0
LINE
  5
217
100
AcDbEntity
  8
Layer_1
 62
7
100
AcDbLine
 10
15.707055
 20
152.062543
 30
0.0
 11
16.133706
 21
152.580085
 31
0.0
  0
LINE
  5
218
100
AcDbEntity
  8
Layer_1
 62
7
100
AcDbLine
 10
16.133706
 20
152.580085
 30
0.0
 11
16.651248
 21
153.006736
 31
0.0
  0
LINE
  5
219
100
AcDbEntity
  8
Layer_1
 62
7
100
AcDbLine
 10
16.651248
 20
153.006736
 30
0.0
 11
17.245825
 21
153.328642
 31
0.0
  0
LINE
  5
21a
100
AcDbEntity
  8
Layer_1
 62
7
100
AcDbLine
 10
17.245825
 20
153.328642
 30
0.0
 11
17.903583
 21
153.531946
 31
0.0
  0
LINE
  5
21b
100
AcDbEntity
  8
Layer_1
 62
7
100
AcDbLine
 10
17.903583
 20
153.531946
 30
0.0
 11
18.610665
 21
153.602793
 31
0.0
  0
LINE
  5
21c
100
AcDbEntity
  8
Layer_1
 62
7
100
AcDbLine
 10
18.610665
 20
153.602793
 30
0.0
 11
76.802463
 21
153.602793
 31
0.0
  0
LINE
  5
21d
100
AcDbEntity
  8
Layer_1
 62
7
100
AcDbLine
 10
76.802463
 20
153.602793
 30
0.0
 11
76.857033
 21
153.599971
 31
0.0
  0
LINE
  5
21e
100
AcDbEntity
  8
Layer_1
 62
7
100
AcDbLine
 10
76.857033
 20
153.599971
 30
0.0
 11
76.857033
 21
153.603273
 31
0.0
  0
LINE
  5
21f
100
AcDbEntity
  8
Layer_1
 62
7
100
AcDbLine
 10
76.857033
 20
153.603273
 30
0.0
 11
85.035001
 21
153.603273
 31
0.0
  0
LINE
  5
220
100
AcDbEntity
  8
Layer_1
 62
7
100
AcDbLine
 10
85.035001
 20
153.603273
 30
0.0
 11
85.035001
 21
153.603343
 31
0.0
  0
LINE
  5
221
100
AcDbEntity
  8
Layer_1
 62
7
100
AcDbLine
 10
39.008349
 20
141.649279
 30
0.0
 11
31.008351
 21
141.649279
 31
0.0
  0
LINE
  5
222
100
AcDbEntity
  8
Layer_1
 62
7
100
AcDbLine
 10
31.008351
 20
141.649279
 30
0.0
 11
31.008351
 21
133.649278
 31
0.0
  0
LINE
  5
223
100
AcDbEntity
  8
Layer_1
 62
7
100
AcDbLine
 10
31.008351
 20
133.649278
 30
0.0
 11
39.008349
 21
133.649278
 31
0.0
  0
LINE
  5
224
100
AcDbEntity
  8
Layer_1
 62
7
100
AcDbLine
 10
39.008349
 20
133.649278
 30
0.0
 11
39.008349
 21
141.649279
 31
0.0
  0
LINE
  5
225
100
AcDbEntity
  8
Layer_1
 62
7
100
AcDbLine
 10
39.037288
 20
117.410553
 30
0.0
 11
31.037287
 21
117.410553
 31
0.0
  0
LINE
  5
226
100
AcDbEntity
  8
Layer_1
 62
7
100
AcDbLine
 10
31.037287
 20
117.410553
 30
0.0
 11
31.037287
 21
109.410552
 31
0.0
  0
LINE
  5
227
100
AcDbEntity
  8
Layer_1
 62
7
100
AcDbLine
 10
31.037287
 20
109.410552
 30
0.0
 11
39.037288
 21
109.410552
 31
0.0
  0
LINE
  5
228
100
AcDbEntity
  8
Layer_1
 62
7
100
AcDbLine
 10
39.037288
 20
109.410552
 30
0.0
 11
39.037288
 21
117.410553
 31
0.0
  0
LINE
  5
229
100
AcDbEntity
  8
Layer_1
 62
7
100
AcDbLine
 10
53.072752
 20
129.529912
 30
0.0
 11
45.072752
 21
129.529912
 31
0.0
  0
LINE
  5
22a
100
AcDbEntity
  8
Layer_1
 62
7
100
AcDbLine
 10
45.072752
 20
129.529912
 30
0.0
 11
45.072752
 21
121.529911
 31
0.0
  0
LINE
  5
22b
100
AcDbEntity
  8
Layer_1
 62
7
100
AcDbLine
 10
45.072752
 20
121.529911
 30
0.0
 11
53.072752
 21
121.529911
 31
0.0
  0
LINE
  5
22c
100
AcDbEntity
  8
Layer_1
 62
7
100
AcDbLine
 10
53.072752
 20
121.529911
 30
0.0
 11
53.072752
 21
129.529912
 31
0.0
  0
ENDSEC
  0
SECTION
  2
OBJECTS
  0
DICTIONARY
  5
C
330
0
100
AcDbDictionary
  3
ACAD_GROUP
350
D
  3
ACAD_MLINESTYLE
350
17
  0
DICTIONARY
  5
D
330
C
100
AcDbDictionary
  0
DICTIONARY
  5
1A
330
C
100
AcDbDictionary
  0
DICTIONARY
  5
17
330
C
100
AcDbDictionary
  3
STANDARD
350
18
  0
DICTIONARY
  5
19
330
C
100
AcDbDictionary
  0
ENDSEC
  0
EOF
