  0
SECTION
  2
BLOCKS
  0
ENDSEC
  0
SECTION
  2
ENTITIES
  0
LINE
  8
0
 10
80
 20
65
 11
-80
 21
65
  0
LINE
  8
0
 10
-80
 20
65
 11
-80
 21
-65
  0
LINE
  8
0
 10
-80
 20
-65
 11
80
 21
-65
  0
LINE
  8
0
 10
80
 20
-65
 11
80
 21
65
  0
LINE
  8
0
 10
-69.2613
 20
47.5137
 11
-69.7725
 21
47.6224
  0
LINE
  8
0
 10
-69.7725
 20
47.6224
 11
-70.25
 21
47.8349
  0
LINE
  8
0
 10
-70.25
 20
47.8349
 11
-70.6728
 21
48.1422
  0
LINE
  8
0
 10
-70.6728
 20
48.1422
 11
-71.0225
 21
48.5305
  0
LINE
  8
0
 10
-71.0225
 20
48.5305
 11
-71.2839
 21
48.9832
  0
LINE
  8
0
 10
-71.2839
 20
48.9832
 11
-71.4454
 21
49.4802
  0
LINE
  8
0
 10
-71.4454
 20
49.4802
 11
-71.5
 21
50
  0
LINE
  8
0
 10
-71.5
 20
50
 11
-71.4454
 21
50.5198
  0
LINE
  8
0
 10
-71.4454
 20
50.5198
 11
-71.2839
 21
51.0168
  0
LINE
  8
0
 10
-71.2839
 20
51.0168
 11
-71.0225
 21
51.4695
  0
LINE
  8
0
 10
-71.0225
 20
51.4695
 11
-70.6728
 21
51.8578
  0
LINE
  8
0
 10
-70.6728
 20
51.8578
 11
-70.25
 21
52.1651
  0
LINE
  8
0
 10
-70.25
 20
52.1651
 11
-69.7725
 21
52.3776
  0
LINE
  8
0
 10
-69.7725
 20
52.3776
 11
-69.2613
 21
52.4863
  0
LINE
  8
0
 10
-69.2613
 20
52.4863
 11
-68.7387
 21
52.4863
  0
LINE
  8
0
 10
-68.7387
 20
52.4863
 11
-68.2274
 21
52.3776
  0
LINE
  8
0
 10
-68.2274
 20
52.3776
 11
-67.75
 21
52.1651
  0
LINE
  8
0
 10
-67.75
 20
52.1651
 11
-67.3272
 21
51.8578
  0
LINE
  8
0
 10
-67.3272
 20
51.8578
 11
-66.9774
 21
51.4695
  0
LINE
  8
0
 10
-66.9774
 20
51.4695
 11
-66.7161
 21
51.0168
  0
LINE
  8
0
 10
-66.7161
 20
51.0168
 11
-66.5546
 21
50.5198
  0
LINE
  8
0
 10
-66.5546
 20
50.5198
 11
-66.5
 21
50
  0
LINE
  8
0
 10
-66.5
 20
50
 11
-66.5546
 21
49.4802
  0
LINE
  8
0
 10
-66.5546
 20
49.4802
 11
-66.7161
 21
48.9832
  0
LINE
  8
0
 10
-66.7161
 20
48.9832
 11
-66.9774
 21
48.5305
  0
LINE
  8
0
 10
-66.9774
 20
48.5305
 11
-67.3272
 21
48.1422
  0
LINE
  8
0
 10
-67.3272
 20
48.1422
 11
-67.75
 21
47.8349
  0
LINE
  8
0
 10
-67.75
 20
47.8349
 11
-68.2274
 21
47.6224
  0
LINE
  8
0
 10
-68.2274
 20
47.6224
 11
-68.7387
 21
47.5137
  0
LINE
  8
0
 10
-68.7387
 20
47.5137
 11
-69.2613
 21
47.5137
  0
LINE
  8
0
 10
-51.2613
 20
47.5137
 11
-51.7726
 21
47.6224
  0
LINE
  8
0
 10
-51.7726
 20
47.6224
 11
-52.25
 21
47.8349
  0
LINE
  8
0
 10
-52.25
 20
47.8349
 11
-52.6728
 21
48.1422
  0
LINE
  8
0
 10
-52.6728
 20
48.1422
 11
-53.0226
 21
48.5305
  0
LINE
  8
0
 10
-53.0226
 20
48.5305
 11
-53.2839
 21
48.9832
  0
LINE
  8
0
 10
-53.2839
 20
48.9832
 11
-53.4454
 21
49.4802
  0
LINE
  8
0
 10
-53.4454
 20
49.4802
 11
-53.5
 21
50
  0
LINE
  8
0
 10
-53.5
 20
50
 11
-53.4454
 21
50.5198
  0
LINE
  8
0
 10
-53.4454
 20
50.5198
 11
-53.2839
 21
51.0168
  0
LINE
  8
0
 10
-53.2839
 20
51.0168
 11
-53.0226
 21
51.4695
  0
LINE
  8
0
 10
-53.0226
 20
51.4695
 11
-52.6728
 21
51.8578
  0
LINE
  8
0
 10
-52.6728
 20
51.8578
 11
-52.25
 21
52.1651
  0
LINE
  8
0
 10
-52.25
 20
52.1651
 11
-51.7726
 21
52.3776
  0
LINE
  8
0
 10
-51.7726
 20
52.3776
 11
-51.2613
 21
52.4863
  0
LINE
  8
0
 10
-51.2613
 20
52.4863
 11
-50.7387
 21
52.4863
  0
LINE
  8
0
 10
-50.7387
 20
52.4863
 11
-50.2275
 21
52.3776
  0
LINE
  8
0
 10
-50.2275
 20
52.3776
 11
-49.75
 21
52.1651
  0
LINE
  8
0
 10
-49.75
 20
52.1651
 11
-49.3272
 21
51.8578
  0
LINE
  8
0
 10
-49.3272
 20
51.8578
 11
-48.9775
 21
51.4695
  0
LINE
  8
0
 10
-48.9775
 20
51.4695
 11
-48.7161
 21
51.0168
  0
LINE
  8
0
 10
-48.7161
 20
51.0168
 11
-48.5546
 21
50.5198
  0
LINE
  8
0
 10
-48.5546
 20
50.5198
 11
-48.5
 21
50
  0
LINE
  8
0
 10
-48.5
 20
50
 11
-48.5546
 21
49.4802
  0
LINE
  8
0
 10
-48.5546
 20
49.4802
 11
-48.7161
 21
48.9832
  0
LINE
  8
0
 10
-48.7161
 20
48.9832
 11
-48.9775
 21
48.5305
  0
LINE
  8
0
 10
-48.9775
 20
48.5305
 11
-49.3272
 21
48.1422
  0
LINE
  8
0
 10
-49.3272
 20
48.1422
 11
-49.75
 21
47.8349
  0
LINE
  8
0
 10
-49.75
 20
47.8349
 11
-50.2275
 21
47.6224
  0
LINE
  8
0
 10
-50.2275
 20
47.6224
 11
-50.7387
 21
47.5137
  0
LINE
  8
0
 10
-50.7387
 20
47.5137
 11
-51.2613
 21
47.5137
  0
LINE
  8
0
 10
50.7387
 20
47.5137
 11
50.2275
 21
47.6224
  0
LINE
  8
0
 10
50.2275
 20
47.6224
 11
49.75
 21
47.8349
  0
LINE
  8
0
 10
49.75
 20
47.8349
 11
49.3272
 21
48.1422
  0
LINE
  8
0
 10
49.3272
 20
48.1422
 11
48.9775
 21
48.5305
  0
LINE
  8
0
 10
48.9775
 20
48.5305
 11
48.7161
 21
48.9832
  0
LINE
  8
0
 10
48.7161
 20
48.9832
 11
48.5546
 21
49.4802
  0
LINE
  8
0
 10
48.5546
 20
49.4802
 11
48.5
 21
50
  0
LINE
  8
0
 10
48.5
 20
50
 11
48.5546
 21
50.5198
  0
LINE
  8
0
 10
48.5546
 20
50.5198
 11
48.7161
 21
51.0168
  0
LINE
  8
0
 10
48.7161
 20
51.0168
 11
48.9775
 21
51.4695
  0
LINE
  8
0
 10
48.9775
 20
51.4695
 11
49.3272
 21
51.8578
  0
LINE
  8
0
 10
49.3272
 20
51.8578
 11
49.75
 21
52.1651
  0
LINE
  8
0
 10
49.75
 20
52.1651
 11
50.2275
 21
52.3776
  0
LINE
  8
0
 10
50.2275
 20
52.3776
 11
50.7387
 21
52.4863
  0
LINE
  8
0
 10
50.7387
 20
52.4863
 11
51.2613
 21
52.4863
  0
LINE
  8
0
 10
51.2613
 20
52.4863
 11
51.7726
 21
52.3776
  0
LINE
  8
0
 10
51.7726
 20
52.3776
 11
52.25
 21
52.1651
  0
LINE
  8
0
 10
52.25
 20
52.1651
 11
52.6728
 21
51.8578
  0
LINE
  8
0
 10
52.6728
 20
51.8578
 11
53.0226
 21
51.4695
  0
LINE
  8
0
 10
53.0226
 20
51.4695
 11
53.2839
 21
51.0168
  0
LINE
  8
0
 10
53.2839
 20
51.0168
 11
53.4454
 21
50.5198
  0
LINE
  8
0
 10
53.4454
 20
50.5198
 11
53.5
 21
50
  0
LINE
  8
0
 10
53.5
 20
50
 11
53.4454
 21
49.4802
  0
LINE
  8
0
 10
53.4454
 20
49.4802
 11
53.2839
 21
48.9832
  0
LINE
  8
0
 10
53.2839
 20
48.9832
 11
53.0226
 21
48.5305
  0
LINE
  8
0
 10
53.0226
 20
48.5305
 11
52.6728
 21
48.1422
  0
LINE
  8
0
 10
52.6728
 20
48.1422
 11
52.25
 21
47.8349
  0
LINE
  8
0
 10
52.25
 20
47.8349
 11
51.7726
 21
47.6224
  0
LINE
  8
0
 10
51.7726
 20
47.6224
 11
51.2613
 21
47.5137
  0
LINE
  8
0
 10
51.2613
 20
47.5137
 11
50.7387
 21
47.5137
  0
LINE
  8
0
 10
68.7387
 20
47.5137
 11
68.2274
 21
47.6224
  0
LINE
  8
0
 10
68.2274
 20
47.6224
 11
67.75
 21
47.8349
  0
LINE
  8
0
 10
67.75
 20
47.8349
 11
67.3272
 21
48.1422
  0
LINE
  8
0
 10
67.3272
 20
48.1422
 11
66.9774
 21
48.5305
  0
LINE
  8
0
 10
66.9774
 20
48.5305
 11
66.7161
 21
48.9832
  0
LINE
  8
0
 10
66.7161
 20
48.9832
 11
66.5546
 21
49.4802
  0
LINE
  8
0
 10
66.5546
 20
49.4802
 11
66.5
 21
50
  0
LINE
  8
0
 10
66.5
 20
50
 11
66.5546
 21
50.5198
  0
LINE
  8
0
 10
66.5546
 20
50.5198
 11
66.7161
 21
51.0168
  0
LINE
  8
0
 10
66.7161
 20
51.0168
 11
66.9774
 21
51.4695
  0
LINE
  8
0
 10
66.9774
 20
51.4695
 11
67.3272
 21
51.8578
  0
LINE
  8
0
 10
67.3272
 20
51.8578
 11
67.75
 21
52.1651
  0
LINE
  8
0
 10
67.75
 20
52.1651
 11
68.2274
 21
52.3776
  0
LINE
  8
0
 10
68.2274
 20
52.3776
 11
68.7387
 21
52.4863
  0
LINE
  8
0
 10
68.7387
 20
52.4863
 11
69.2613
 21
52.4863
  0
LINE
  8
0
 10
69.2613
 20
52.4863
 11
69.7725
 21
52.3776
  0
LINE
  8
0
 10
69.7725
 20
52.3776
 11
70.25
 21
52.1651
  0
LINE
  8
0
 10
70.25
 20
52.1651
 11
70.6728
 21
51.8578
  0
LINE
  8
0
 10
70.6728
 20
51.8578
 11
71.0225
 21
51.4695
  0
LINE
  8
0
 10
71.0225
 20
51.4695
 11
71.2839
 21
51.0168
  0
LINE
  8
0
 10
71.2839
 20
51.0168
 11
71.4454
 21
50.5198
  0
LINE
  8
0
 10
71.4454
 20
50.5198
 11
71.5
 21
50
  0
LINE
  8
0
 10
71.5
 20
50
 11
71.4454
 21
49.4802
  0
LINE
  8
0
 10
71.4454
 20
49.4802
 11
71.2839
 21
48.9832
  0
LINE
  8
0
 10
71.2839
 20
48.9832
 11
71.0225
 21
48.5305
  0
LINE
  8
0
 10
71.0225
 20
48.5305
 11
70.6728
 21
48.1422
  0
LINE
  8
0
 10
70.6728
 20
48.1422
 11
70.25
 21
47.8349
  0
LINE
  8
0
 10
70.25
 20
47.8349
 11
69.7725
 21
47.6224
  0
LINE
  8
0
 10
69.7725
 20
47.6224
 11
69.2613
 21
47.5137
  0
LINE
  8
0
 10
69.2613
 20
47.5137
 11
68.7387
 21
47.5137
  0
LINE
  8
0
 10
-69.2613
 20
-52.4863
 11
-69.7725
 21
-52.3776
  0
LINE
  8
0
 10
-69.7725
 20
-52.3776
 11
-70.25
 21
-52.1651
  0
LINE
  8
0
 10
-70.25
 20
-52.1651
 11
-70.6728
 21
-51.8578
  0
LINE
  8
0
 10
-70.6728
 20
-51.8578
 11
-71.0225
 21
-51.4695
  0
LINE
  8
0
 10
-71.0225
 20
-51.4695
 11
-71.2839
 21
-51.0168
  0
LINE
  8
0
 10
-71.2839
 20
-51.0168
 11
-71.4454
 21
-50.5198
  0
LINE
  8
0
 10
-71.4454
 20
-50.5198
 11
-71.5
 21
-50
  0
LINE
  8
0
 10
-71.5
 20
-50
 11
-71.4454
 21
-49.4802
  0
LINE
  8
0
 10
-71.4454
 20
-49.4802
 11
-71.2839
 21
-48.9832
  0
LINE
  8
0
 10
-71.2839
 20
-48.9832
 11
-71.0225
 21
-48.5305
  0
LINE
  8
0
 10
-71.0225
 20
-48.5305
 11
-70.6728
 21
-48.1422
  0
LINE
  8
0
 10
-70.6728
 20
-48.1422
 11
-70.25
 21
-47.8349
  0
LINE
  8
0
 10
-70.25
 20
-47.8349
 11
-69.7725
 21
-47.6224
  0
LINE
  8
0
 10
-69.7725
 20
-47.6224
 11
-69.2613
 21
-47.5137
  0
LINE
  8
0
 10
-69.2613
 20
-47.5137
 11
-68.7387
 21
-47.5137
  0
LINE
  8
0
 10
-68.7387
 20
-47.5137
 11
-68.2274
 21
-47.6224
  0
LINE
  8
0
 10
-68.2274
 20
-47.6224
 11
-67.75
 21
-47.8349
  0
LINE
  8
0
 10
-67.75
 20
-47.8349
 11
-67.3272
 21
-48.1422
  0
LINE
  8
0
 10
-67.3272
 20
-48.1422
 11
-66.9774
 21
-48.5305
  0
LINE
  8
0
 10
-66.9774
 20
-48.5305
 11
-66.7161
 21
-48.9832
  0
LINE
  8
0
 10
-66.7161
 20
-48.9832
 11
-66.5546
 21
-49.4802
  0
LINE
  8
0
 10
-66.5546
 20
-49.4802
 11
-66.5
 21
-50
  0
LINE
  8
0
 10
-66.5
 20
-50
 11
-66.5546
 21
-50.5198
  0
LINE
  8
0
 10
-66.5546
 20
-50.5198
 11
-66.7161
 21
-51.0168
  0
LINE
  8
0
 10
-66.7161
 20
-51.0168
 11
-66.9774
 21
-51.4695
  0
LINE
  8
0
 10
-66.9774
 20
-51.4695
 11
-67.3272
 21
-51.8578
  0
LINE
  8
0
 10
-67.3272
 20
-51.8578
 11
-67.75
 21
-52.1651
  0
LINE
  8
0
 10
-67.75
 20
-52.1651
 11
-68.2274
 21
-52.3776
  0
LINE
  8
0
 10
-68.2274
 20
-52.3776
 11
-68.7387
 21
-52.4863
  0
LINE
  8
0
 10
-68.7387
 20
-52.4863
 11
-69.2613
 21
-52.4863
  0
LINE
  8
0
 10
-51.2613
 20
-52.4863
 11
-51.7726
 21
-52.3776
  0
LINE
  8
0
 10
-51.7726
 20
-52.3776
 11
-52.25
 21
-52.1651
  0
LINE
  8
0
 10
-52.25
 20
-52.1651
 11
-52.6728
 21
-51.8578
  0
LINE
  8
0
 10
-52.6728
 20
-51.8578
 11
-53.0226
 21
-51.4695
  0
LINE
  8
0
 10
-53.0226
 20
-51.4695
 11
-53.2839
 21
-51.0168
  0
LINE
  8
0
 10
-53.2839
 20
-51.0168
 11
-53.4454
 21
-50.5198
  0
LINE
  8
0
 10
-53.4454
 20
-50.5198
 11
-53.5
 21
-50
  0
LINE
  8
0
 10
-53.5
 20
-50
 11
-53.4454
 21
-49.4802
  0
LINE
  8
0
 10
-53.4454
 20
-49.4802
 11
-53.2839
 21
-48.9832
  0
LINE
  8
0
 10
-53.2839
 20
-48.9832
 11
-53.0226
 21
-48.5305
  0
LINE
  8
0
 10
-53.0226
 20
-48.5305
 11
-52.6728
 21
-48.1422
  0
LINE
  8
0
 10
-52.6728
 20
-48.1422
 11
-52.25
 21
-47.8349
  0
LINE
  8
0
 10
-52.25
 20
-47.8349
 11
-51.7726
 21
-47.6224
  0
LINE
  8
0
 10
-51.7726
 20
-47.6224
 11
-51.2613
 21
-47.5137
  0
LINE
  8
0
 10
-51.2613
 20
-47.5137
 11
-50.7387
 21
-47.5137
  0
LINE
  8
0
 10
-50.7387
 20
-47.5137
 11
-50.2275
 21
-47.6224
  0
LINE
  8
0
 10
-50.2275
 20
-47.6224
 11
-49.75
 21
-47.8349
  0
LINE
  8
0
 10
-49.75
 20
-47.8349
 11
-49.3272
 21
-48.1422
  0
LINE
  8
0
 10
-49.3272
 20
-48.1422
 11
-48.9775
 21
-48.5305
  0
LINE
  8
0
 10
-48.9775
 20
-48.5305
 11
-48.7161
 21
-48.9832
  0
LINE
  8
0
 10
-48.7161
 20
-48.9832
 11
-48.5546
 21
-49.4802
  0
LINE
  8
0
 10
-48.5546
 20
-49.4802
 11
-48.5
 21
-50
  0
LINE
  8
0
 10
-48.5
 20
-50
 11
-48.5546
 21
-50.5198
  0
LINE
  8
0
 10
-48.5546
 20
-50.5198
 11
-48.7161
 21
-51.0168
  0
LINE
  8
0
 10
-48.7161
 20
-51.0168
 11
-48.9775
 21
-51.4695
  0
LINE
  8
0
 10
-48.9775
 20
-51.4695
 11
-49.3272
 21
-51.8578
  0
LINE
  8
0
 10
-49.3272
 20
-51.8578
 11
-49.75
 21
-52.1651
  0
LINE
  8
0
 10
-49.75
 20
-52.1651
 11
-50.2275
 21
-52.3776
  0
LINE
  8
0
 10
-50.2275
 20
-52.3776
 11
-50.7387
 21
-52.4863
  0
LINE
  8
0
 10
-50.7387
 20
-52.4863
 11
-51.2613
 21
-52.4863
  0
LINE
  8
0
 10
50.7387
 20
-52.4863
 11
50.2275
 21
-52.3776
  0
LINE
  8
0
 10
50.2275
 20
-52.3776
 11
49.75
 21
-52.1651
  0
LINE
  8
0
 10
49.75
 20
-52.1651
 11
49.3272
 21
-51.8578
  0
LINE
  8
0
 10
49.3272
 20
-51.8578
 11
48.9775
 21
-51.4695
  0
LINE
  8
0
 10
48.9775
 20
-51.4695
 11
48.7161
 21
-51.0168
  0
LINE
  8
0
 10
48.7161
 20
-51.0168
 11
48.5546
 21
-50.5198
  0
LINE
  8
0
 10
48.5546
 20
-50.5198
 11
48.5
 21
-50
  0
LINE
  8
0
 10
48.5
 20
-50
 11
48.5546
 21
-49.4802
  0
LINE
  8
0
 10
48.5546
 20
-49.4802
 11
48.7161
 21
-48.9832
  0
LINE
  8
0
 10
48.7161
 20
-48.9832
 11
48.9775
 21
-48.5305
  0
LINE
  8
0
 10
48.9775
 20
-48.5305
 11
49.3272
 21
-48.1422
  0
LINE
  8
0
 10
49.3272
 20
-48.1422
 11
49.75
 21
-47.8349
  0
LINE
  8
0
 10
49.75
 20
-47.8349
 11
50.2275
 21
-47.6224
  0
LINE
  8
0
 10
50.2275
 20
-47.6224
 11
50.7387
 21
-47.5137
  0
LINE
  8
0
 10
50.7387
 20
-47.5137
 11
51.2613
 21
-47.5137
  0
LINE
  8
0
 10
51.2613
 20
-47.5137
 11
51.7726
 21
-47.6224
  0
LINE
  8
0
 10
51.7726
 20
-47.6224
 11
52.25
 21
-47.8349
  0
LINE
  8
0
 10
52.25
 20
-47.8349
 11
52.6728
 21
-48.1422
  0
LINE
  8
0
 10
52.6728
 20
-48.1422
 11
53.0226
 21
-48.5305
  0
LINE
  8
0
 10
53.0226
 20
-48.5305
 11
53.2839
 21
-48.9832
  0
LINE
  8
0
 10
53.2839
 20
-48.9832
 11
53.4454
 21
-49.4802
  0
LINE
  8
0
 10
53.4454
 20
-49.4802
 11
53.5
 21
-50
  0
LINE
  8
0
 10
53.5
 20
-50
 11
53.4454
 21
-50.5198
  0
LINE
  8
0
 10
53.4454
 20
-50.5198
 11
53.2839
 21
-51.0168
  0
LINE
  8
0
 10
53.2839
 20
-51.0168
 11
53.0226
 21
-51.4695
  0
LINE
  8
0
 10
53.0226
 20
-51.4695
 11
52.6728
 21
-51.8578
  0
LINE
  8
0
 10
52.6728
 20
-51.8578
 11
52.25
 21
-52.1651
  0
LINE
  8
0
 10
52.25
 20
-52.1651
 11
51.7726
 21
-52.3776
  0
LINE
  8
0
 10
51.7726
 20
-52.3776
 11
51.2613
 21
-52.4863
  0
LINE
  8
0
 10
51.2613
 20
-52.4863
 11
50.7387
 21
-52.4863
  0
LINE
  8
0
 10
68.7387
 20
-52.4863
 11
68.2274
 21
-52.3776
  0
LINE
  8
0
 10
68.2274
 20
-52.3776
 11
67.75
 21
-52.1651
  0
LINE
  8
0
 10
67.75
 20
-52.1651
 11
67.3272
 21
-51.8578
  0
LINE
  8
0
 10
67.3272
 20
-51.8578
 11
66.9774
 21
-51.4695
  0
LINE
  8
0
 10
66.9774
 20
-51.4695
 11
66.7161
 21
-51.0168
  0
LINE
  8
0
 10
66.7161
 20
-51.0168
 11
66.5546
 21
-50.5198
  0
LINE
  8
0
 10
66.5546
 20
-50.5198
 11
66.5
 21
-50
  0
LINE
  8
0
 10
66.5
 20
-50
 11
66.5546
 21
-49.4802
  0
LINE
  8
0
 10
66.5546
 20
-49.4802
 11
66.7161
 21
-48.9832
  0
LINE
  8
0
 10
66.7161
 20
-48.9832
 11
66.9774
 21
-48.5305
  0
LINE
  8
0
 10
66.9774
 20
-48.5305
 11
67.3272
 21
-48.1422
  0
LINE
  8
0
 10
67.3272
 20
-48.1422
 11
67.75
 21
-47.8349
  0
LINE
  8
0
 10
67.75
 20
-47.8349
 11
68.2274
 21
-47.6224
  0
LINE
  8
0
 10
68.2274
 20
-47.6224
 11
68.7387
 21
-47.5137
  0
LINE
  8
0
 10
68.7387
 20
-47.5137
 11
69.2613
 21
-47.5137
  0
LINE
  8
0
 10
69.2613
 20
-47.5137
 11
69.7725
 21
-47.6224
  0
LINE
  8
0
 10
69.7725
 20
-47.6224
 11
70.25
 21
-47.8349
  0
LINE
  8
0
 10
70.25
 20
-47.8349
 11
70.6728
 21
-48.1422
  0
LINE
  8
0
 10
70.6728
 20
-48.1422
 11
71.0225
 21
-48.5305
  0
LINE
  8
0
 10
71.0225
 20
-48.5305
 11
71.2839
 21
-48.9832
  0
LINE
  8
0
 10
71.2839
 20
-48.9832
 11
71.4454
 21
-49.4802
  0
LINE
  8
0
 10
71.4454
 20
-49.4802
 11
71.5
 21
-50
  0
LINE
  8
0
 10
71.5
 20
-50
 11
71.4454
 21
-50.5198
  0
LINE
  8
0
 10
71.4454
 20
-50.5198
 11
71.2839
 21
-51.0168
  0
LINE
  8
0
 10
71.2839
 20
-51.0168
 11
71.0225
 21
-51.4695
  0
LINE
  8
0
 10
71.0225
 20
-51.4695
 11
70.6728
 21
-51.8578
  0
LINE
  8
0
 10
70.6728
 20
-51.8578
 11
70.25
 21
-52.1651
  0
LINE
  8
0
 10
70.25
 20
-52.1651
 11
69.7725
 21
-52.3776
  0
LINE
  8
0
 10
69.7725
 20
-52.3776
 11
69.2613
 21
-52.4863
  0
LINE
  8
0
 10
69.2613
 20
-52.4863
 11
68.7387
 21
-52.4863
  0
ENDSEC
  0
SECTION
  2
OBJECTS
  0
DICTIONARY
  0
ENDSEC
  0
EOF
