  0
SECTION
  2
BLOCKS
  0
ENDSEC
  0
SECTION
  2
ENTITIES
  0
LINE
  8
0
 10
3.60468
 20
-3.65128
 11
4.11285
 21
-3.47107
  0
LINE
  8
0
 10
4.11285
 20
-3.47107
 11
4.61407
 21
-3.22969
  0
LINE
  8
0
 10
4.61407
 20
-3.22969
 11
5.10428
 21
-2.91882
  0
LINE
  8
0
 10
5.10428
 20
-2.91882
 11
5.48395
 21
-2.536
  0
LINE
  8
0
 10
5.48395
 20
-2.536
 11
5.8308
 21
-2.10106
  0
LINE
  8
0
 10
5.8308
 20
-2.10106
 11
6.13757
 21
-1.60829
  0
LINE
  8
0
 10
6.13757
 20
-1.60829
 11
6.31352
 21
-1.09868
  0
LINE
  8
0
 10
6.31352
 20
-1.09868
 11
6.43732
 21
-0.556335
  0
LINE
  8
0
 10
6.43732
 20
-0.556335
 11
6.5
 21
0
  0
LINE
  8
0
 10
6.5
 20
0
 11
6.5
 21
18
  0
LINE
  8
0
 10
6.5
 20
18
 11
6.43732
 21
18.5563
  0
LINE
  8
0
 10
6.43732
 20
18.5563
 11
6.37776
 21
18.8173
  0
LINE
  8
0
 10
6.37776
 20
18.8173
 11
40
 21
40
  0
LINE
  8
0
 10
40
 20
40
 11
40
 21
72
  0
LINE
  8
0
 10
40
 20
72
 11
-40
 21
72
  0
LINE
  8
0
 10
-40
 20
72
 11
-40
 21
40
  0
LINE
  8
0
 10
-40
 20
40
 11
-6.37776
 21
18.8173
  0
LINE
  8
0
 10
-6.37776
 20
18.8173
 11
-6.43732
 21
18.5563
  0
LINE
  8
0
 10
-6.43732
 20
18.5563
 11
-6.5
 21
18
  0
LINE
  8
0
 10
-6.5
 20
18
 11
-6.5
 21
0
  0
LINE
  8
0
 10
-6.5
 20
0
 11
-6.43732
 21
-0.556335
  0
LINE
  8
0
 10
-6.43732
 20
-0.556335
 11
-6.31352
 21
-1.09868
  0
LINE
  8
0
 10
-6.31352
 20
-1.09868
 11
-6.11952
 21
-1.64577
  0
LINE
  8
0
 10
-6.11952
 20
-1.64577
 11
-5.8308
 21
-2.10106
  0
LINE
  8
0
 10
-5.8308
 20
-2.10106
 11
-5.48395
 21
-2.536
  0
LINE
  8
0
 10
-5.48395
 20
-2.536
 11
-5.07179
 21
-2.94473
  0
LINE
  8
0
 10
-5.07179
 20
-2.94473
 11
-4.61407
 21
-3.22969
  0
LINE
  8
0
 10
-4.61407
 20
-3.22969
 11
-4.11285
 21
-3.47107
  0
LINE
  8
0
 10
-4.11285
 20
-3.47107
 11
-3.56418
 21
-3.66051
  0
LINE
  8
0
 10
-3.56418
 20
-3.66051
 11
-3.02814
 21
-3.71866
  0
LINE
  8
0
 10
-3.02814
 20
-3.71866
 11
3.02814
 21
-3.71866
  0
LINE
  8
0
 10
3.02814
 20
-3.71866
 11
3.60468
 21
-3.65128
  0
LINE
  8
0
 10
4.63414
 20
33.5192
 11
3.91843
 21
33.6713
  0
LINE
  8
0
 10
3.91843
 20
33.6713
 11
3.24998
 21
33.9689
  0
LINE
  8
0
 10
3.24998
 20
33.9689
 11
2.65804
 21
34.399
  0
LINE
  8
0
 10
2.65804
 20
34.399
 11
2.16843
 21
34.9427
  0
LINE
  8
0
 10
2.16843
 20
34.9427
 11
1.80258
 21
35.5764
  0
LINE
  8
0
 10
1.80258
 20
35.5764
 11
1.57648
 21
36.2723
  0
LINE
  8
0
 10
1.57648
 20
36.2723
 11
1.5
 21
37
  0
LINE
  8
0
 10
1.5
 20
37
 11
1.57648
 21
37.7277
  0
LINE
  8
0
 10
1.57648
 20
37.7277
 11
1.80258
 21
38.4236
  0
LINE
  8
0
 10
1.80258
 20
38.4236
 11
2.16843
 21
39.0572
  0
LINE
  8
0
 10
2.16843
 20
39.0572
 11
2.65804
 21
39.601
  0
LINE
  8
0
 10
2.65804
 20
39.601
 11
3.25
 21
40.0311
  0
LINE
  8
0
 10
3.25
 20
40.0311
 11
3.91843
 21
40.3287
  0
LINE
  8
0
 10
3.91843
 20
40.3287
 11
4.63414
 21
40.4808
  0
LINE
  8
0
 10
4.63414
 20
40.4808
 11
5.36584
 21
40.4808
  0
LINE
  8
0
 10
5.36584
 20
40.4808
 11
6.08156
 21
40.3287
  0
LINE
  8
0
 10
6.08156
 20
40.3287
 11
6.75
 21
40.0311
  0
LINE
  8
0
 10
6.75
 20
40.0311
 11
7.34195
 21
39.601
  0
LINE
  8
0
 10
7.34195
 20
39.601
 11
7.83156
 21
39.0572
  0
LINE
  8
0
 10
7.83156
 20
39.0572
 11
8.1974
 21
38.4236
  0
LINE
  8
0
 10
8.1974
 20
38.4236
 11
8.42351
 21
37.7277
  0
LINE
  8
0
 10
8.42351
 20
37.7277
 11
8.5
 21
37
  0
LINE
  8
0
 10
8.5
 20
37
 11
8.42351
 21
36.2723
  0
LINE
  8
0
 10
8.42351
 20
36.2723
 11
8.1974
 21
35.5764
  0
LINE
  8
0
 10
8.1974
 20
35.5764
 11
7.83156
 21
34.9427
  0
LINE
  8
0
 10
7.83156
 20
34.9427
 11
7.34195
 21
34.399
  0
LINE
  8
0
 10
7.34195
 20
34.399
 11
6.75
 21
33.9689
  0
LINE
  8
0
 10
6.75
 20
33.9689
 11
6.08156
 21
33.6713
  0
LINE
  8
0
 10
6.08156
 20
33.6713
 11
5.36584
 21
33.5192
  0
LINE
  8
0
 10
5.36584
 20
33.5192
 11
4.63414
 21
33.5192
  0
LINE
  8
0
 10
-5.36584
 20
33.5192
 11
-6.08156
 21
33.6713
  0
LINE
  8
0
 10
-6.08156
 20
33.6713
 11
-6.75
 21
33.9689
  0
LINE
  8
0
 10
-6.75
 20
33.9689
 11
-7.34195
 21
34.399
  0
LINE
  8
0
 10
-7.34195
 20
34.399
 11
-7.83156
 21
34.9427
  0
LINE
  8
0
 10
-7.83156
 20
34.9427
 11
-8.1974
 21
35.5764
  0
LINE
  8
0
 10
-8.1974
 20
35.5764
 11
-8.42351
 21
36.2723
  0
LINE
  8
0
 10
-8.42351
 20
36.2723
 11
-8.5
 21
37
  0
LINE
  8
0
 10
-8.5
 20
37
 11
-8.42351
 21
37.7277
  0
LINE
  8
0
 10
-8.42351
 20
37.7277
 11
-8.1974
 21
38.4236
  0
LINE
  8
0
 10
-8.1974
 20
38.4236
 11
-7.83156
 21
39.0572
  0
LINE
  8
0
 10
-7.83156
 20
39.0572
 11
-7.34195
 21
39.601
  0
LINE
  8
0
 10
-7.34195
 20
39.601
 11
-6.75
 21
40.0311
  0
LINE
  8
0
 10
-6.75
 20
40.0311
 11
-6.08156
 21
40.3287
  0
LINE
  8
0
 10
-6.08156
 20
40.3287
 11
-5.36584
 21
40.4808
  0
LINE
  8
0
 10
-5.36584
 20
40.4808
 11
-4.63414
 21
40.4808
  0
LINE
  8
0
 10
-4.63414
 20
40.4808
 11
-3.91843
 21
40.3287
  0
LINE
  8
0
 10
-3.91843
 20
40.3287
 11
-3.25
 21
40.0311
  0
LINE
  8
0
 10
-3.25
 20
40.0311
 11
-2.65804
 21
39.601
  0
LINE
  8
0
 10
-2.65804
 20
39.601
 11
-2.16843
 21
39.0572
  0
LINE
  8
0
 10
-2.16843
 20
39.0572
 11
-1.80258
 21
38.4236
  0
LINE
  8
0
 10
-1.80258
 20
38.4236
 11
-1.57648
 21
37.7277
  0
LINE
  8
0
 10
-1.57648
 20
37.7277
 11
-1.5
 21
37
  0
LINE
  8
0
 10
-1.5
 20
37
 11
-1.57648
 21
36.2723
  0
LINE
  8
0
 10
-1.57648
 20
36.2723
 11
-1.80258
 21
35.5764
  0
LINE
  8
0
 10
-1.80258
 20
35.5764
 11
-2.16843
 21
34.9427
  0
LINE
  8
0
 10
-2.16843
 20
34.9427
 11
-2.65804
 21
34.399
  0
LINE
  8
0
 10
-2.65804
 20
34.399
 11
-3.24998
 21
33.9689
  0
LINE
  8
0
 10
-3.24998
 20
33.9689
 11
-3.91843
 21
33.6713
  0
LINE
  8
0
 10
-3.91843
 20
33.6713
 11
-4.63414
 21
33.5192
  0
LINE
  8
0
 10
-4.63414
 20
33.5192
 11
-5.36584
 21
33.5192
  0
LINE
  8
0
 10
2.47185
 20
16.7813
 11
1.97063
 21
17.0227
  0
LINE
  8
0
 10
1.97063
 20
17.0227
 11
1.62378
 21
17.4576
  0
LINE
  8
0
 10
1.62378
 20
17.4576
 11
1.5
 21
18
  0
LINE
  8
0
 10
1.5
 20
18
 11
1.62378
 21
18.5423
  0
LINE
  8
0
 10
1.62378
 20
18.5423
 11
1.97063
 21
18.9773
  0
LINE
  8
0
 10
1.97063
 20
18.9773
 11
2.47185
 21
19.2187
  0
LINE
  8
0
 10
2.47185
 20
19.2187
 11
3.02814
 21
19.2187
  0
LINE
  8
0
 10
3.02814
 20
19.2187
 11
3.52936
 21
18.9773
  0
LINE
  8
0
 10
3.52936
 20
18.9773
 11
3.87621
 21
18.5423
  0
LINE
  8
0
 10
3.87621
 20
18.5423
 11
4
 21
18
  0
LINE
  8
0
 10
4
 20
18
 11
3.87621
 21
17.4576
  0
LINE
  8
0
 10
3.87621
 20
17.4576
 11
3.52936
 21
17.0227
  0
LINE
  8
0
 10
3.52936
 20
17.0227
 11
3.02814
 21
16.7813
  0
LINE
  8
0
 10
3.02814
 20
16.7813
 11
2.47185
 21
16.7813
  0
LINE
  8
0
 10
-3.02814
 20
16.7813
 11
-3.52936
 21
17.0227
  0
LINE
  8
0
 10
-3.52936
 20
17.0227
 11
-3.87621
 21
17.4576
  0
LINE
  8
0
 10
-3.87621
 20
17.4576
 11
-4
 21
18
  0
LINE
  8
0
 10
-4
 20
18
 11
-3.87621
 21
18.5423
  0
LINE
  8
0
 10
-3.87621
 20
18.5423
 11
-3.52936
 21
18.9773
  0
LINE
  8
0
 10
-3.52936
 20
18.9773
 11
-3.02814
 21
19.2187
  0
LINE
  8
0
 10
-3.02814
 20
19.2187
 11
-2.47185
 21
19.2187
  0
LINE
  8
0
 10
-2.47185
 20
19.2187
 11
-1.97063
 21
18.9773
  0
LINE
  8
0
 10
-1.97063
 20
18.9773
 11
-1.62378
 21
18.5423
  0
LINE
  8
0
 10
-1.62378
 20
18.5423
 11
-1.5
 21
18
  0
LINE
  8
0
 10
-1.5
 20
18
 11
-1.62378
 21
17.4576
  0
LINE
  8
0
 10
-1.62378
 20
17.4576
 11
-1.97063
 21
17.0227
  0
LINE
  8
0
 10
-1.97063
 20
17.0227
 11
-2.47185
 21
16.7813
  0
LINE
  8
0
 10
-2.47185
 20
16.7813
 11
-3.02814
 21
16.7813
  0
LINE
  8
0
 10
2.47185
 20
7.78133
 11
1.97063
 21
8.02271
  0
LINE
  8
0
 10
1.97063
 20
8.02271
 11
1.62378
 21
8.45764
  0
LINE
  8
0
 10
1.62378
 20
8.45764
 11
1.5
 21
9
  0
LINE
  8
0
 10
1.5
 20
9
 11
1.62378
 21
9.54234
  0
LINE
  8
0
 10
1.62378
 20
9.54234
 11
1.97063
 21
9.97728
  0
LINE
  8
0
 10
1.97063
 20
9.97728
 11
2.47185
 21
10.2187
  0
LINE
  8
0
 10
2.47185
 20
10.2187
 11
3.02814
 21
10.2187
  0
LINE
  8
0
 10
3.02814
 20
10.2187
 11
3.52936
 21
9.97728
  0
LINE
  8
0
 10
3.52936
 20
9.97728
 11
3.87621
 21
9.54234
  0
LINE
  8
0
 10
3.87621
 20
9.54234
 11
4
 21
9
  0
LINE
  8
0
 10
4
 20
9
 11
3.87621
 21
8.45764
  0
LINE
  8
0
 10
3.87621
 20
8.45764
 11
3.52936
 21
8.02271
  0
LINE
  8
0
 10
3.52936
 20
8.02271
 11
3.02814
 21
7.78133
  0
LINE
  8
0
 10
3.02814
 20
7.78133
 11
2.47185
 21
7.78133
  0
LINE
  8
0
 10
-3.02814
 20
7.78133
 11
-3.52936
 21
8.02271
  0
LINE
  8
0
 10
-3.52936
 20
8.02271
 11
-3.87621
 21
8.45764
  0
LINE
  8
0
 10
-3.87621
 20
8.45764
 11
-4
 21
9
  0
LINE
  8
0
 10
-4
 20
9
 11
-3.87621
 21
9.54234
  0
LINE
  8
0
 10
-3.87621
 20
9.54234
 11
-3.52936
 21
9.97728
  0
LINE
  8
0
 10
-3.52936
 20
9.97728
 11
-3.02814
 21
10.2187
  0
LINE
  8
0
 10
-3.02814
 20
10.2187
 11
-2.47185
 21
10.2187
  0
LINE
  8
0
 10
-2.47185
 20
10.2187
 11
-1.97063
 21
9.97728
  0
LINE
  8
0
 10
-1.97063
 20
9.97728
 11
-1.62378
 21
9.54234
  0
LINE
  8
0
 10
-1.62378
 20
9.54234
 11
-1.5
 21
9
  0
LINE
  8
0
 10
-1.5
 20
9
 11
-1.62378
 21
8.45764
  0
LINE
  8
0
 10
-1.62378
 20
8.45764
 11
-1.97063
 21
8.02271
  0
LINE
  8
0
 10
-1.97063
 20
8.02271
 11
-2.47185
 21
7.78133
  0
LINE
  8
0
 10
-2.47185
 20
7.78133
 11
-3.02814
 21
7.78133
  0
LINE
  8
0
 10
2.47185
 20
-1.21866
 11
1.97063
 21
-0.97728
  0
LINE
  8
0
 10
1.97063
 20
-0.97728
 11
1.62378
 21
-0.542343
  0
LINE
  8
0
 10
1.62378
 20
-0.542343
 11
1.5
 21
0
  0
LINE
  8
0
 10
1.5
 20
0
 11
1.62378
 21
0.542343
  0
LINE
  8
0
 10
1.62378
 20
0.542343
 11
1.97063
 21
0.97728
  0
LINE
  8
0
 10
1.97063
 20
0.97728
 11
2.47185
 21
1.21866
  0
LINE
  8
0
 10
2.47185
 20
1.21866
 11
3.02814
 21
1.21866
  0
LINE
  8
0
 10
3.02814
 20
1.21866
 11
3.52936
 21
0.97728
  0
LINE
  8
0
 10
3.52936
 20
0.97728
 11
3.87621
 21
0.542343
  0
LINE
  8
0
 10
3.87621
 20
0.542343
 11
4
 21
0
  0
LINE
  8
0
 10
4
 20
0
 11
3.87621
 21
-0.542343
  0
LINE
  8
0
 10
3.87621
 20
-0.542343
 11
3.52936
 21
-0.97728
  0
LINE
  8
0
 10
3.52936
 20
-0.97728
 11
3.02814
 21
-1.21866
  0
LINE
  8
0
 10
3.02814
 20
-1.21866
 11
2.47185
 21
-1.21866
  0
LINE
  8
0
 10
-3.02814
 20
-1.21866
 11
-3.52936
 21
-0.97728
  0
LINE
  8
0
 10
-3.52936
 20
-0.97728
 11
-3.87621
 21
-0.542343
  0
LINE
  8
0
 10
-3.87621
 20
-0.542343
 11
-4
 21
0
  0
LINE
  8
0
 10
-4
 20
0
 11
-3.87621
 21
0.542343
  0
LINE
  8
0
 10
-3.87621
 20
0.542343
 11
-3.52936
 21
0.97728
  0
LINE
  8
0
 10
-3.52936
 20
0.97728
 11
-3.02814
 21
1.21866
  0
LINE
  8
0
 10
-3.02814
 20
1.21866
 11
-2.47185
 21
1.21866
  0
LINE
  8
0
 10
-2.47185
 20
1.21866
 11
-1.97063
 21
0.97728
  0
LINE
  8
0
 10
-1.97063
 20
0.97728
 11
-1.62378
 21
0.542343
  0
LINE
  8
0
 10
-1.62378
 20
0.542343
 11
-1.5
 21
0
  0
LINE
  8
0
 10
-1.5
 20
0
 11
-1.62378
 21
-0.542343
  0
LINE
  8
0
 10
-1.62378
 20
-0.542343
 11
-1.97063
 21
-0.97728
  0
LINE
  8
0
 10
-1.97063
 20
-0.97728
 11
-2.47185
 21
-1.21866
  0
LINE
  8
0
 10
-2.47185
 20
-1.21866
 11
-3.02814
 21
-1.21866
  0
ENDSEC
  0
SECTION
  2
OBJECTS
  0
DICTIONARY
  0
ENDSEC
  0
EOF
