  0
SECTION
  2
BLOCKS
  0
ENDSEC
  0
SECTION
  2
ENTITIES
  0
LINE
  8
0
 10
0.768616
 20
-6.74631
 11
1.10332
 21
-6.08231
  0
LINE
  8
0
 10
1.10332
 20
-6.08231
 11
1.24416
 21
-5.57019
  0
LINE
  8
0
 10
1.24416
 20
-5.57019
 11
1.26721
 21
-5.25232
  0
LINE
  8
0
 10
1.26721
 20
-5.25232
 11
1.256
 21
-5.14664
  0
LINE
  8
0
 10
1.256
 20
-5.14664
 11
1.01173
 21
-4.14577
  0
LINE
  8
0
 10
1.01173
 20
-4.14577
 11
2.21608
 21
-3.64691
  0
LINE
  8
0
 10
2.21608
 20
-3.64691
 11
2.75108
 21
-4.52734
  0
LINE
  8
0
 10
2.75108
 20
-4.52734
 11
2.81787
 21
-4.61
  0
LINE
  8
0
 10
2.81787
 20
-4.61
 11
3.05894
 21
-4.81847
  0
LINE
  8
0
 10
3.05894
 20
-4.81847
 11
3.52066
 21
-5.08101
  0
LINE
  8
0
 10
3.52066
 20
-5.08101
 11
4.22685
 21
-5.31386
  0
LINE
  8
0
 10
4.22685
 20
-5.31386
 11
5.1761
 21
-5.42749
  0
LINE
  8
0
 10
5.1761
 20
-5.42749
 11
5.42749
 21
-5.1761
  0
LINE
  8
0
 10
5.42749
 20
-5.1761
 11
5.31386
 21
-4.22685
  0
LINE
  8
0
 10
5.31386
 20
-4.22685
 11
5.08101
 21
-3.52066
  0
LINE
  8
0
 10
5.08101
 20
-3.52066
 11
4.81847
 21
-3.05894
  0
LINE
  8
0
 10
4.81847
 20
-3.05894
 11
4.61
 21
-2.81787
  0
LINE
  8
0
 10
4.61
 20
-2.81787
 11
4.52734
 21
-2.75108
  0
LINE
  8
0
 10
4.52734
 20
-2.75108
 11
3.64691
 21
-2.21608
  0
LINE
  8
0
 10
3.64691
 20
-2.21608
 11
4.14575
 21
-1.01175
  0
LINE
  8
0
 10
4.14575
 20
-1.01175
 11
5.14664
 21
-1.25601
  0
LINE
  8
0
 10
5.14664
 20
-1.25601
 11
5.25232
 21
-1.26723
  0
LINE
  8
0
 10
5.25232
 20
-1.26723
 11
5.57019
 21
-1.24417
  0
LINE
  8
0
 10
5.57019
 20
-1.24417
 11
6.08231
 21
-1.10333
  0
LINE
  8
0
 10
6.08231
 20
-1.10333
 11
6.74631
 21
-0.768631
  0
LINE
  8
0
 10
6.74631
 20
-0.768631
 11
7.49788
 21
-0.177765
  0
LINE
  8
0
 10
7.49788
 20
-0.177765
 11
7.49788
 21
0.17775
  0
LINE
  8
0
 10
7.49788
 20
0.17775
 11
6.74631
 21
0.768616
  0
LINE
  8
0
 10
6.74631
 20
0.768616
 11
6.08231
 21
1.10332
  0
LINE
  8
0
 10
6.08231
 20
1.10332
 11
5.57019
 21
1.24416
  0
LINE
  8
0
 10
5.57019
 20
1.24416
 11
5.25232
 21
1.26721
  0
LINE
  8
0
 10
5.25232
 20
1.26721
 11
5.14664
 21
1.256
  0
LINE
  8
0
 10
5.14664
 20
1.256
 11
4.14577
 21
1.01173
  0
LINE
  8
0
 10
4.14577
 20
1.01173
 11
3.64691
 21
2.21608
  0
LINE
  8
0
 10
3.64691
 20
2.21608
 11
4.52734
 21
2.75108
  0
LINE
  8
0
 10
4.52734
 20
2.75108
 11
4.61
 21
2.81787
  0
LINE
  8
0
 10
4.61
 20
2.81787
 11
4.81847
 21
3.05894
  0
LINE
  8
0
 10
4.81847
 20
3.05894
 11
5.08101
 21
3.52066
  0
LINE
  8
0
 10
5.08101
 20
3.52066
 11
5.31386
 21
4.22685
  0
LINE
  8
0
 10
5.31386
 20
4.22685
 11
5.42749
 21
5.1761
  0
LINE
  8
0
 10
5.42749
 20
5.1761
 11
5.1761
 21
5.42749
  0
LINE
  8
0
 10
5.1761
 20
5.42749
 11
4.22685
 21
5.31386
  0
LINE
  8
0
 10
4.22685
 20
5.31386
 11
3.52066
 21
5.08101
  0
LINE
  8
0
 10
3.52066
 20
5.08101
 11
3.05894
 21
4.81847
  0
LINE
  8
0
 10
3.05894
 20
4.81847
 11
2.81787
 21
4.61
  0
LINE
  8
0
 10
2.81787
 20
4.61
 11
2.75108
 21
4.52734
  0
LINE
  8
0
 10
2.75108
 20
4.52734
 11
2.21608
 21
3.64691
  0
LINE
  8
0
 10
2.21608
 20
3.64691
 11
1.01175
 21
4.14575
  0
LINE
  8
0
 10
1.01175
 20
4.14575
 11
1.25601
 21
5.14664
  0
LINE
  8
0
 10
1.25601
 20
5.14664
 11
1.26723
 21
5.25232
  0
LINE
  8
0
 10
1.26723
 20
5.25232
 11
1.24417
 21
5.57019
  0
LINE
  8
0
 10
1.24417
 20
5.57019
 11
1.10333
 21
6.08231
  0
LINE
  8
0
 10
1.10333
 20
6.08231
 11
0.768631
 21
6.74631
  0
LINE
  8
0
 10
0.768631
 20
6.74631
 11
0.177765
 21
7.49788
  0
LINE
  8
0
 10
0.177765
 20
7.49788
 11
-0.17775
 21
7.49788
  0
LINE
  8
0
 10
-0.17775
 20
7.49788
 11
-0.768616
 21
6.74631
  0
LINE
  8
0
 10
-0.768616
 20
6.74631
 11
-1.10332
 21
6.08231
  0
LINE
  8
0
 10
-1.10332
 20
6.08231
 11
-1.24416
 21
5.57019
  0
LINE
  8
0
 10
-1.24416
 20
5.57019
 11
-1.26721
 21
5.25232
  0
LINE
  8
0
 10
-1.26721
 20
5.25232
 11
-1.256
 21
5.14664
  0
LINE
  8
0
 10
-1.256
 20
5.14664
 11
-1.01173
 21
4.14577
  0
LINE
  8
0
 10
-1.01173
 20
4.14577
 11
-2.21608
 21
3.64691
  0
LINE
  8
0
 10
-2.21608
 20
3.64691
 11
-2.75108
 21
4.52734
  0
LINE
  8
0
 10
-2.75108
 20
4.52734
 11
-2.81787
 21
4.61
  0
LINE
  8
0
 10
-2.81787
 20
4.61
 11
-3.05894
 21
4.81847
  0
LINE
  8
0
 10
-3.05894
 20
4.81847
 11
-3.52066
 21
5.08101
  0
LINE
  8
0
 10
-3.52066
 20
5.08101
 11
-4.22685
 21
5.31386
  0
LINE
  8
0
 10
-4.22685
 20
5.31386
 11
-5.1761
 21
5.42749
  0
LINE
  8
0
 10
-5.1761
 20
5.42749
 11
-5.42749
 21
5.1761
  0
LINE
  8
0
 10
-5.42749
 20
5.1761
 11
-5.31386
 21
4.22685
  0
LINE
  8
0
 10
-5.31386
 20
4.22685
 11
-5.08101
 21
3.52066
  0
LINE
  8
0
 10
-5.08101
 20
3.52066
 11
-4.81847
 21
3.05894
  0
LINE
  8
0
 10
-4.81847
 20
3.05894
 11
-4.61
 21
2.81787
  0
LINE
  8
0
 10
-4.61
 20
2.81787
 11
-4.52734
 21
2.75108
  0
LINE
  8
0
 10
-4.52734
 20
2.75108
 11
-3.64691
 21
2.21608
  0
LINE
  8
0
 10
-3.64691
 20
2.21608
 11
-4.14575
 21
1.01175
  0
LINE
  8
0
 10
-4.14575
 20
1.01175
 11
-5.14664
 21
1.25601
  0
LINE
  8
0
 10
-5.14664
 20
1.25601
 11
-5.25232
 21
1.26723
  0
LINE
  8
0
 10
-5.25232
 20
1.26723
 11
-5.57019
 21
1.24417
  0
LINE
  8
0
 10
-5.57019
 20
1.24417
 11
-6.08231
 21
1.10333
  0
LINE
  8
0
 10
-6.08231
 20
1.10333
 11
-6.74631
 21
0.768631
  0
LINE
  8
0
 10
-6.74631
 20
0.768631
 11
-7.49788
 21
0.177765
  0
LINE
  8
0
 10
-7.49788
 20
0.177765
 11
-7.49788
 21
-0.17775
  0
LINE
  8
0
 10
-7.49788
 20
-0.17775
 11
-6.74631
 21
-0.768616
  0
LINE
  8
0
 10
-6.74631
 20
-0.768616
 11
-6.08231
 21
-1.10332
  0
LINE
  8
0
 10
-6.08231
 20
-1.10332
 11
-5.57019
 21
-1.24416
  0
LINE
  8
0
 10
-5.57019
 20
-1.24416
 11
-5.25232
 21
-1.26721
  0
LINE
  8
0
 10
-5.25232
 20
-1.26721
 11
-5.14664
 21
-1.256
  0
LINE
  8
0
 10
-5.14664
 20
-1.256
 11
-4.14577
 21
-1.01173
  0
LINE
  8
0
 10
-4.14577
 20
-1.01173
 11
-3.64691
 21
-2.21608
  0
LINE
  8
0
 10
-3.64691
 20
-2.21608
 11
-4.52734
 21
-2.75108
  0
LINE
  8
0
 10
-4.52734
 20
-2.75108
 11
-4.61
 21
-2.81787
  0
LINE
  8
0
 10
-4.61
 20
-2.81787
 11
-4.81847
 21
-3.05894
  0
LINE
  8
0
 10
-4.81847
 20
-3.05894
 11
-5.08101
 21
-3.52066
  0
LINE
  8
0
 10
-5.08101
 20
-3.52066
 11
-5.31386
 21
-4.22685
  0
LINE
  8
0
 10
-5.31386
 20
-4.22685
 11
-5.42749
 21
-5.1761
  0
LINE
  8
0
 10
-5.42749
 20
-5.1761
 11
-5.1761
 21
-5.42749
  0
LINE
  8
0
 10
-5.1761
 20
-5.42749
 11
-4.22685
 21
-5.31386
  0
LINE
  8
0
 10
-4.22685
 20
-5.31386
 11
-3.52066
 21
-5.08101
  0
LINE
  8
0
 10
-3.52066
 20
-5.08101
 11
-3.05894
 21
-4.81847
  0
LINE
  8
0
 10
-3.05894
 20
-4.81847
 11
-2.81787
 21
-4.61
  0
LINE
  8
0
 10
-2.81787
 20
-4.61
 11
-2.75108
 21
-4.52734
  0
LINE
  8
0
 10
-2.75108
 20
-4.52734
 11
-2.21608
 21
-3.64691
  0
LINE
  8
0
 10
-2.21608
 20
-3.64691
 11
-1.01175
 21
-4.14575
  0
LINE
  8
0
 10
-1.01175
 20
-4.14575
 11
-1.25601
 21
-5.14664
  0
LINE
  8
0
 10
-1.25601
 20
-5.14664
 11
-1.26723
 21
-5.25232
  0
LINE
  8
0
 10
-1.26723
 20
-5.25232
 11
-1.24417
 21
-5.57019
  0
LINE
  8
0
 10
-1.24417
 20
-5.57019
 11
-1.10333
 21
-6.08231
  0
LINE
  8
0
 10
-1.10333
 20
-6.08231
 11
-0.768631
 21
-6.74631
  0
LINE
  8
0
 10
-0.768631
 20
-6.74631
 11
-0.177765
 21
-7.49788
  0
LINE
  8
0
 10
-0.177765
 20
-7.49788
 11
0.17775
 21
-7.49788
  0
LINE
  8
0
 10
0.17775
 20
-7.49788
 11
0.768616
 21
-6.74631
  0
LINE
  8
0
 10
-0.19133
 20
-0.461929
 11
-0.353546
 21
-0.353546
  0
LINE
  8
0
 10
-0.353546
 20
-0.353546
 11
-0.461929
 21
-0.19133
  0
LINE
  8
0
 10
-0.461929
 20
-0.19133
 11
-0.5
 21
0
  0
LINE
  8
0
 10
-0.5
 20
0
 11
-0.461929
 21
0.19133
  0
LINE
  8
0
 10
-0.461929
 20
0.19133
 11
-0.353546
 21
0.353546
  0
LINE
  8
0
 10
-0.353546
 20
0.353546
 11
-0.19133
 21
0.461929
  0
LINE
  8
0
 10
-0.19133
 20
0.461929
 11
0
 21
0.5
  0
LINE
  8
0
 10
0
 20
0.5
 11
0.19133
 21
0.461929
  0
LINE
  8
0
 10
0.19133
 20
0.461929
 11
0.353546
 21
0.353546
  0
LINE
  8
0
 10
0.353546
 20
0.353546
 11
0.461929
 21
0.19133
  0
LINE
  8
0
 10
0.461929
 20
0.19133
 11
0.5
 21
0
  0
LINE
  8
0
 10
0.5
 20
0
 11
0.461929
 21
-0.19133
  0
LINE
  8
0
 10
0.461929
 20
-0.19133
 11
0.353546
 21
-0.353546
  0
LINE
  8
0
 10
0.353546
 20
-0.353546
 11
0.19133
 21
-0.461929
  0
LINE
  8
0
 10
0.19133
 20
-0.461929
 11
0
 21
-0.5
  0
LINE
  8
0
 10
0
 20
-0.5
 11
-0.19133
 21
-0.461929
  0
ENDSEC
  0
SECTION
  2
OBJECTS
  0
DICTIONARY
  0
ENDSEC
  0
EOF
