  0
SECTION
  2
BLOCKS
  0
ENDSEC
  0
SECTION
  2
ENTITIES
  0
LINE
  8
0
 10
-7.07294
 20
-40.3532
 11
-6.49998
 21
-40.0981
  0
LINE
  8
0
 10
-6.49998
 20
-40.0981
 11
-5.9926
 21
-39.7294
  0
LINE
  8
0
 10
-5.9926
 20
-39.7294
 11
-5.57294
 21
-39.2634
  0
LINE
  8
0
 10
-5.57294
 20
-39.2634
 11
-5.25935
 21
-38.7202
  0
LINE
  8
0
 10
-5.25935
 20
-38.7202
 11
-5.06555
 21
-38.1237
  0
LINE
  8
0
 10
-5.06555
 20
-38.1237
 11
-5
 21
-37.5
  0
LINE
  8
0
 10
-5
 20
-37.5
 11
-5.06555
 21
-36.8763
  0
LINE
  8
0
 10
-5.06555
 20
-36.8763
 11
-5.25935
 21
-36.2798
  0
LINE
  8
0
 10
-5.25935
 20
-36.2798
 11
-5.57294
 21
-35.7366
  0
LINE
  8
0
 10
-5.57294
 20
-35.7366
 11
-5.9926
 21
-35.2706
  0
LINE
  8
0
 10
-5.9926
 20
-35.2706
 11
-6.5
 21
-34.9019
  0
LINE
  8
0
 10
-6.5
 20
-34.9019
 11
-6.5
 21
13
  0
LINE
  8
0
 10
-6.5
 20
13
 11
6.5
 21
13
  0
LINE
  8
0
 10
6.5
 20
13
 11
6.5
 21
-34.9019
  0
LINE
  8
0
 10
6.5
 20
-34.9019
 11
5.9926
 21
-35.2706
  0
LINE
  8
0
 10
5.9926
 20
-35.2706
 11
5.57294
 21
-35.7366
  0
LINE
  8
0
 10
5.57294
 20
-35.7366
 11
5.25935
 21
-36.2798
  0
LINE
  8
0
 10
5.25935
 20
-36.2798
 11
5.06555
 21
-36.8763
  0
LINE
  8
0
 10
5.06555
 20
-36.8763
 11
5
 21
-37.5
  0
LINE
  8
0
 10
5
 20
-37.5
 11
5.06555
 21
-38.1237
  0
LINE
  8
0
 10
5.06555
 20
-38.1237
 11
5.25935
 21
-38.7202
  0
LINE
  8
0
 10
5.25935
 20
-38.7202
 11
5.57294
 21
-39.2634
  0
LINE
  8
0
 10
5.57294
 20
-39.2634
 11
5.9926
 21
-39.7294
  0
LINE
  8
0
 10
5.9926
 20
-39.7294
 11
6.49998
 21
-40.0981
  0
LINE
  8
0
 10
6.49998
 20
-40.0981
 11
7.07294
 21
-40.3532
  0
LINE
  8
0
 10
7.07294
 20
-40.3532
 11
7.6864
 21
-40.4836
  0
LINE
  8
0
 10
7.6864
 20
-40.4836
 11
8.31358
 21
-40.4836
  0
LINE
  8
0
 10
8.31358
 20
-40.4836
 11
8.92705
 21
-40.3532
  0
LINE
  8
0
 10
8.92705
 20
-40.3532
 11
9.5
 21
-40.0981
  0
LINE
  8
0
 10
9.5
 20
-40.0981
 11
10.0074
 21
-39.7294
  0
LINE
  8
0
 10
10.0074
 20
-39.7294
 11
10.427
 21
-39.2634
  0
LINE
  8
0
 10
10.427
 20
-39.2634
 11
10.5791
 21
-39
  0
LINE
  8
0
 10
10.5791
 20
-39
 11
37.5
 21
-39
  0
LINE
  8
0
 10
37.5
 20
-39
 11
37.5
 21
28
  0
LINE
  8
0
 10
37.5
 20
28
 11
-37.5
 21
28
  0
LINE
  8
0
 10
-37.5
 20
28
 11
-37.5
 21
-39
  0
LINE
  8
0
 10
-37.5
 20
-39
 11
-10.5791
 21
-39
  0
LINE
  8
0
 10
-10.5791
 20
-39
 11
-10.427
 21
-39.2634
  0
LINE
  8
0
 10
-10.427
 20
-39.2634
 11
-10.0074
 21
-39.7294
  0
LINE
  8
0
 10
-10.0074
 20
-39.7294
 11
-9.5
 21
-40.0981
  0
LINE
  8
0
 10
-9.5
 20
-40.0981
 11
-8.92705
 21
-40.3532
  0
LINE
  8
0
 10
-8.92705
 20
-40.3532
 11
-8.31358
 21
-40.4836
  0
LINE
  8
0
 10
-8.31358
 20
-40.4836
 11
-7.6864
 21
-40.4836
  0
LINE
  8
0
 10
-7.6864
 20
-40.4836
 11
-7.07294
 21
-40.3532
  0
LINE
  8
0
 10
4.34514
 20
24.2442
 11
4.0405
 21
24.7183
  0
LINE
  8
0
 10
4.0405
 20
24.7183
 11
4.0405
 21
25.2817
  0
LINE
  8
0
 10
4.0405
 20
25.2817
 11
4.34514
 21
25.7557
  0
LINE
  8
0
 10
4.34514
 20
25.7557
 11
4.85768
 21
25.9898
  0
LINE
  8
0
 10
4.85768
 20
25.9898
 11
5.41541
 21
25.9096
  0
LINE
  8
0
 10
5.41541
 20
25.9096
 11
5.84125
 21
25.5406
  0
LINE
  8
0
 10
5.84125
 20
25.5406
 11
6
 21
25
  0
LINE
  8
0
 10
6
 20
25
 11
5.84125
 21
24.4594
  0
LINE
  8
0
 10
5.84125
 20
24.4594
 11
5.41541
 21
24.0904
  0
LINE
  8
0
 10
5.41541
 20
24.0904
 11
4.85768
 21
24.0102
  0
LINE
  8
0
 10
4.85768
 20
24.0102
 11
4.34514
 21
24.2442
  0
LINE
  8
0
 10
-5.41541
 20
24.0904
 11
-5.84125
 21
24.4594
  0
LINE
  8
0
 10
-5.84125
 20
24.4594
 11
-6
 21
25
  0
LINE
  8
0
 10
-6
 20
25
 11
-5.84125
 21
25.5406
  0
LINE
  8
0
 10
-5.84125
 20
25.5406
 11
-5.41541
 21
25.9096
  0
LINE
  8
0
 10
-5.41541
 20
25.9096
 11
-4.85768
 21
25.9898
  0
LINE
  8
0
 10
-4.85768
 20
25.9898
 11
-4.34514
 21
25.7557
  0
LINE
  8
0
 10
-4.34514
 20
25.7557
 11
-4.0405
 21
25.2817
  0
LINE
  8
0
 10
-4.0405
 20
25.2817
 11
-4.0405
 21
24.7183
  0
LINE
  8
0
 10
-4.0405
 20
24.7183
 11
-4.34514
 21
24.2442
  0
LINE
  8
0
 10
-4.34514
 20
24.2442
 11
-4.85768
 21
24.0102
  0
LINE
  8
0
 10
-4.85768
 20
24.0102
 11
-5.41541
 21
24.0904
  0
LINE
  8
0
 10
34.3451
 20
7.24425
 11
34.0405
 21
7.71826
  0
LINE
  8
0
 10
34.0405
 20
7.71826
 11
34.0405
 21
8.28172
  0
LINE
  8
0
 10
34.0405
 20
8.28172
 11
34.3451
 21
8.75574
  0
LINE
  8
0
 10
34.3451
 20
8.75574
 11
34.8577
 21
8.98981
  0
LINE
  8
0
 10
34.8577
 20
8.98981
 11
35.4154
 21
8.90962
  0
LINE
  8
0
 10
35.4154
 20
8.90962
 11
35.8412
 21
8.54063
  0
LINE
  8
0
 10
35.8412
 20
8.54063
 11
36
 21
8
  0
LINE
  8
0
 10
36
 20
8
 11
35.8412
 21
7.45935
  0
LINE
  8
0
 10
35.8412
 20
7.45935
 11
35.4154
 21
7.09036
  0
LINE
  8
0
 10
35.4154
 20
7.09036
 11
34.8577
 21
7.01018
  0
LINE
  8
0
 10
34.8577
 20
7.01018
 11
34.3451
 21
7.24425
  0
LINE
  8
0
 10
-35.4154
 20
7.09036
 11
-35.8412
 21
7.45935
  0
LINE
  8
0
 10
-35.8412
 20
7.45935
 11
-36
 21
8
  0
LINE
  8
0
 10
-36
 20
8
 11
-35.8412
 21
8.54063
  0
LINE
  8
0
 10
-35.8412
 20
8.54063
 11
-35.4154
 21
8.90962
  0
LINE
  8
0
 10
-35.4154
 20
8.90962
 11
-34.8577
 21
8.98981
  0
LINE
  8
0
 10
-34.8577
 20
8.98981
 11
-34.3451
 21
8.75574
  0
LINE
  8
0
 10
-34.3451
 20
8.75574
 11
-34.0405
 21
8.28172
  0
LINE
  8
0
 10
-34.0405
 20
8.28172
 11
-34.0405
 21
7.71826
  0
LINE
  8
0
 10
-34.0405
 20
7.71826
 11
-34.3451
 21
7.24425
  0
LINE
  8
0
 10
-34.3451
 20
7.24425
 11
-34.8577
 21
7.01018
  0
LINE
  8
0
 10
-34.8577
 20
7.01018
 11
-35.4154
 21
7.09036
  0
LINE
  8
0
 10
34.3451
 20
-6.75574
 11
34.0405
 21
-6.28172
  0
LINE
  8
0
 10
34.0405
 20
-6.28172
 11
34.0405
 21
-5.71826
  0
LINE
  8
0
 10
34.0405
 20
-5.71826
 11
34.3451
 21
-5.24425
  0
LINE
  8
0
 10
34.3451
 20
-5.24425
 11
34.8577
 21
-5.01018
  0
LINE
  8
0
 10
34.8577
 20
-5.01018
 11
35.4154
 21
-5.09036
  0
LINE
  8
0
 10
35.4154
 20
-5.09036
 11
35.8412
 21
-5.45935
  0
LINE
  8
0
 10
35.8412
 20
-5.45935
 11
36
 21
-6
  0
LINE
  8
0
 10
36
 20
-6
 11
35.8412
 21
-6.54063
  0
LINE
  8
0
 10
35.8412
 20
-6.54063
 11
35.4154
 21
-6.90962
  0
LINE
  8
0
 10
35.4154
 20
-6.90962
 11
34.8577
 21
-6.98981
  0
LINE
  8
0
 10
34.8577
 20
-6.98981
 11
34.3451
 21
-6.75574
  0
LINE
  8
0
 10
-35.4154
 20
-6.90962
 11
-35.8412
 21
-6.54063
  0
LINE
  8
0
 10
-35.8412
 20
-6.54063
 11
-36
 21
-6
  0
LINE
  8
0
 10
-36
 20
-6
 11
-35.8412
 21
-5.45935
  0
LINE
  8
0
 10
-35.8412
 20
-5.45935
 11
-35.4154
 21
-5.09036
  0
LINE
  8
0
 10
-35.4154
 20
-5.09036
 11
-34.8577
 21
-5.01018
  0
LINE
  8
0
 10
-34.8577
 20
-5.01018
 11
-34.3451
 21
-5.24425
  0
LINE
  8
0
 10
-34.3451
 20
-5.24425
 11
-34.0405
 21
-5.71826
  0
LINE
  8
0
 10
-34.0405
 20
-5.71826
 11
-34.0405
 21
-6.28172
  0
LINE
  8
0
 10
-34.0405
 20
-6.28172
 11
-34.3451
 21
-6.75574
  0
LINE
  8
0
 10
-34.3451
 20
-6.75574
 11
-34.8577
 21
-6.98981
  0
LINE
  8
0
 10
-34.8577
 20
-6.98981
 11
-35.4154
 21
-6.90962
  0
LINE
  8
0
 10
7.34514
 20
-38.2557
 11
7.0405
 21
-37.7817
  0
LINE
  8
0
 10
7.0405
 20
-37.7817
 11
7.0405
 21
-37.2183
  0
LINE
  8
0
 10
7.0405
 20
-37.2183
 11
7.34514
 21
-36.7442
  0
LINE
  8
0
 10
7.34514
 20
-36.7442
 11
7.85768
 21
-36.5102
  0
LINE
  8
0
 10
7.85768
 20
-36.5102
 11
8.41541
 21
-36.5904
  0
LINE
  8
0
 10
8.41541
 20
-36.5904
 11
8.84125
 21
-36.9594
  0
LINE
  8
0
 10
8.84125
 20
-36.9594
 11
9
 21
-37.5
  0
LINE
  8
0
 10
9
 20
-37.5
 11
8.84125
 21
-38.0406
  0
LINE
  8
0
 10
8.84125
 20
-38.0406
 11
8.41541
 21
-38.4096
  0
LINE
  8
0
 10
8.41541
 20
-38.4096
 11
7.85768
 21
-38.4898
  0
LINE
  8
0
 10
7.85768
 20
-38.4898
 11
7.34514
 21
-38.2557
  0
LINE
  8
0
 10
-8.41541
 20
-38.4096
 11
-8.84125
 21
-38.0406
  0
LINE
  8
0
 10
-8.84125
 20
-38.0406
 11
-9
 21
-37.5
  0
LINE
  8
0
 10
-9
 20
-37.5
 11
-8.84125
 21
-36.9594
  0
LINE
  8
0
 10
-8.84125
 20
-36.9594
 11
-8.41541
 21
-36.5904
  0
LINE
  8
0
 10
-8.41541
 20
-36.5904
 11
-7.85768
 21
-36.5102
  0
LINE
  8
0
 10
-7.85768
 20
-36.5102
 11
-7.34514
 21
-36.7442
  0
LINE
  8
0
 10
-7.34514
 20
-36.7442
 11
-7.0405
 21
-37.2183
  0
LINE
  8
0
 10
-7.0405
 20
-37.2183
 11
-7.0405
 21
-37.7817
  0
LINE
  8
0
 10
-7.0405
 20
-37.7817
 11
-7.34514
 21
-38.2557
  0
LINE
  8
0
 10
-7.34514
 20
-38.2557
 11
-7.85768
 21
-38.4898
  0
LINE
  8
0
 10
-7.85768
 20
-38.4898
 11
-8.41541
 21
-38.4096
  0
ENDSEC
  0
SECTION
  2
OBJECTS
  0
DICTIONARY
  0
ENDSEC
  0
EOF
