  0
SECTION
  2
HEADER
  9
$ACADVER
  1
AC1014
  9
$HANDSEED
  5
FFFF
  9
$MEASUREMENT
 70
     1
  0
ENDSEC
  0
SECTION
  2
TABLES
  0
TABLE
  2
VPORT
  5
8
330
0
100
AcDbSymbolTable
 70
     4
  0
VPORT
  5
2E
330
8
100
AcDbSymbolTableRecord
100
AcDbViewportTableRecord
  2
*ACTIVE
 70
     0
 10
0.0
 20
0.0
 11
1.0
 21
1.0
 12
210.0
 22
148.5
 13
0.0
 23
0.0
 14
10.0
 24
10.0
 15
10.0
 25
10.0
 16
0.0
 26
0.0
 36
1.0
 17
0.0
 27
0.0
 37
0.0
 40
341.0
 41
1.24
 42
50.0
 43
0.0
 44
0.0
 50
0.0
 51
0.0
 71
     0
 72
   100
 73
     1
 74
     3
 75
     0
 76
     0
 77
     0
 78
     0
  0
ENDTAB
  0
TABLE
  2
LTYPE
  5
5
330
0
100
AcDbSymbolTable
 70
     1
  0
LTYPE
  5
14
330
5
100
AcDbSymbolTableRecord
100
AcDbLinetypeTableRecord
  2
BYBLOCK
 70
     0
  3

 72
    65
 73
     0
 40
0.0
  0
LTYPE
  5
15
330
5
100
AcDbSymbolTableRecord
100
AcDbLinetypeTableRecord
  2
BYLAYER
 70
     0
  3

 72
    65
 73
     0
 40
0.0
  0
LTYPE
  5
16
330
5
100
AcDbSymbolTableRecord
100
AcDbLinetypeTableRecord
  2
CONTINUOUS
 70
     0
  3
Solid line
 72
    65
 73
     0
 40
0.0
  0
ENDTAB
  0
TABLE
  2
LAYER
  5
2
100
AcDbSymbolTable
 70
2
  0
LAYER
  5
50
100
AcDbSymbolTableRecord
100
AcDbLayerTableRecord
  2
0
 70
0
  6
CONTINUOUS
  0
LAYER
  5
51
100
AcDbSymbolTableRecord
100
AcDbLayerTableRecord
  2
Layer_1
 70
0
  6
CONTINUOUS
  0
ENDTAB
  0
TABLE
  2
STYLE
  5
3
330
0
100
AcDbSymbolTable
 70
     1
  0
STYLE
  5
11
330
3
100
AcDbSymbolTableRecord
100
AcDbTextStyleTableRecord
  2
STANDARD
 70
     0
 40
0.0
 41
1.0
 50
0.0
 71
     0
 42
2.5
  3
txt
  4

  0
ENDTAB
  0
TABLE
  2
VIEW
  5
6
330
0
100
AcDbSymbolTable
 70
     0
  0
ENDTAB
  0
TABLE
  2
UCS
  5
7
330
0
100
AcDbSymbolTable
 70
     0
  0
ENDTAB
  0
TABLE
  2
APPID
  5
9
330
0
100
AcDbSymbolTable
 70
     2
  0
APPID
  5
12
330
9
100
AcDbSymbolTableRecord
100
AcDbRegAppTableRecord
  2
ACAD
 70
     0
  0
ENDTAB
  0
TABLE
  2
DIMSTYLE
  5
A
330
0
100
AcDbSymbolTable
 70
     1
  0
DIMSTYLE
105
27
330
A
100
AcDbSymbolTableRecord
100
AcDbDimStyleTableRecord
  2
ISO-25
 70
     0
  3

  4

  5

  6

  7

 40
1.0
 41
2.5
 42
0.625
 43
3.75
 44
1.25
 45
0.0
 46
0.0
 47
0.0
 48
0.0
140
2.5
141
2.5
142
0.0
143
0.03937007874016
144
1.0
145
0.0
146
1.0
147
0.625
 71
     0
 72
     0
 73
     0
 74
     0
 75
     0
 76
     0
 77
     1
 78
     8
170
     0
171
     3
172
     1
173
     0
174
     0
175
     0
176
     0
177
     0
178
     0
270
     2
271
     2
272
     2
273
     2
274
     3
340
11
275
     0
280
     0
281
     0
282
     0
283
     0
284
     8
285
     0
286
     0
287
     3
288
     0
  0
ENDTAB
  0
TABLE
  2
BLOCK_RECORD
  5
1
330
0
100
AcDbSymbolTable
 70
     1
  0
BLOCK_RECORD
  5
1F
330
1
100
AcDbSymbolTableRecord
100
AcDbBlockTableRecord
  2
*MODEL_SPACE
  0
BLOCK_RECORD
  5
1B
330
1
100
AcDbSymbolTableRecord
100
AcDbBlockTableRecord
  2
*PAPER_SPACE
  0
ENDTAB
  0
ENDSEC
  0
SECTION
  2
BLOCKS
  0
BLOCK
  5
20
330
1F
100
AcDbEntity
  8
0
100
AcDbBlockBegin
  2
*MODEL_SPACE
 70
     0
 10
0.0
 20
0.0
 30
0.0
  3
*MODEL_SPACE
  1

  0
ENDBLK
  5
21
330
1F
100
AcDbEntity
  8
0
100
AcDbBlockEnd
  0
BLOCK
  5
1C
330
1B
100
AcDbEntity
 67
     1
  8
0
100
AcDbBlockBegin
  2
*PAPER_SPACE
  1

  0
ENDBLK
  5
1D
330
1B
100
AcDbEntity
 67
     1
  8
0
100
AcDbBlockEnd
  0
ENDSEC
  0
SECTION
  2
ENTITIES
  0
LINE
  5
100
100
AcDbEntity
  8
Layer_1
 62
7
100
AcDbLine
 10
0.257750
 20
73.267490
 30
0.0
 11
230.257751
 21
73.267490
 31
0.0
  0
LINE
  5
101
100
AcDbEntity
  8
Layer_1
 62
7
100
AcDbLine
 10
230.257751
 20
73.267490
 30
0.0
 11
230.257751
 21
13.267495
 31
0.0
  0
LINE
  5
102
100
AcDbEntity
  8
Layer_1
 62
7
100
AcDbLine
 10
230.257751
 20
13.267495
 30
0.0
 11
0.257750
 21
13.267495
 31
0.0
  0
LINE
  5
103
100
AcDbEntity
  8
Layer_1
 62
7
100
AcDbLine
 10
0.257750
 20
13.267495
 30
0.0
 11
0.257750
 21
73.267490
 31
0.0
  0
LINE
  5
104
100
AcDbEntity
  8
Layer_1
 62
7
100
AcDbLine
 10
45.258028
 20
63.868768
 30
0.0
 11
44.782773
 21
63.774244
 31
0.0
  0
LINE
  5
105
100
AcDbEntity
  8
Layer_1
 62
7
100
AcDbLine
 10
44.782773
 20
63.774244
 30
0.0
 11
44.379871
 21
63.505037
 31
0.0
  0
LINE
  5
106
100
AcDbEntity
  8
Layer_1
 62
7
100
AcDbLine
 10
44.379871
 20
63.505037
 30
0.0
 11
44.110664
 21
63.102135
 31
0.0
  0
LINE
  5
107
100
AcDbEntity
  8
Layer_1
 62
7
100
AcDbLine
 10
44.110664
 20
63.102135
 30
0.0
 11
44.016140
 21
62.626880
 31
0.0
  0
LINE
  5
108
100
AcDbEntity
  8
Layer_1
 62
7
100
AcDbLine
 10
44.016140
 20
62.626880
 30
0.0
 11
44.045906
 21
62.362847
 31
0.0
  0
LINE
  5
109
100
AcDbEntity
  8
Layer_1
 62
7
100
AcDbLine
 10
44.045906
 20
62.362847
 30
0.0
 11
44.045906
 21
58.828457
 31
0.0
  0
LINE
  5
10a
100
AcDbEntity
  8
Layer_1
 62
7
100
AcDbLine
 10
44.045906
 20
58.828457
 30
0.0
 11
43.512152
 21
58.430163
 31
0.0
  0
LINE
  5
10b
100
AcDbEntity
  8
Layer_1
 62
7
100
AcDbLine
 10
43.512152
 20
58.430163
 30
0.0
 11
43.108597
 21
57.914486
 31
0.0
  0
LINE
  5
10c
100
AcDbEntity
  8
Layer_1
 62
7
100
AcDbLine
 10
43.108597
 20
57.914486
 30
0.0
 11
42.853027
 21
57.311607
 31
0.0
  0
LINE
  5
10d
100
AcDbEntity
  8
Layer_1
 62
7
100
AcDbLine
 10
42.853027
 20
57.311607
 30
0.0
 11
42.763226
 21
56.651708
 31
0.0
  0
LINE
  5
10e
100
AcDbEntity
  8
Layer_1
 62
7
100
AcDbLine
 10
42.763226
 20
56.651708
 30
0.0
 11
42.953212
 21
55.697113
 31
0.0
  0
LINE
  5
10f
100
AcDbEntity
  8
Layer_1
 62
7
100
AcDbLine
 10
42.953212
 20
55.697113
 30
0.0
 11
43.494047
 21
54.887888
 31
0.0
  0
LINE
  5
110
100
AcDbEntity
  8
Layer_1
 62
7
100
AcDbLine
 10
43.494047
 20
54.887888
 30
0.0
 11
44.303391
 21
54.347232
 31
0.0
  0
LINE
  5
111
100
AcDbEntity
  8
Layer_1
 62
7
100
AcDbLine
 10
44.303391
 20
54.347232
 30
0.0
 11
45.258028
 21
54.157456
 31
0.0
  0
LINE
  5
112
100
AcDbEntity
  8
Layer_1
 62
7
100
AcDbLine
 10
45.258028
 20
54.157456
 30
0.0
 11
46.228856
 21
54.353538
 31
0.0
  0
LINE
  5
113
100
AcDbEntity
  8
Layer_1
 62
7
100
AcDbLine
 10
46.228856
 20
54.353538
 30
0.0
 11
47.021651
 21
54.888084
 31
0.0
  0
LINE
  5
114
100
AcDbEntity
  8
Layer_1
 62
7
100
AcDbLine
 10
47.021651
 20
54.888084
 30
0.0
 11
47.556196
 21
55.680879
 31
0.0
  0
LINE
  5
115
100
AcDbEntity
  8
Layer_1
 62
7
100
AcDbLine
 10
47.556196
 20
55.680879
 30
0.0
 11
47.752277
 21
56.651708
 31
0.0
  0
LINE
  5
116
100
AcDbEntity
  8
Layer_1
 62
7
100
AcDbLine
 10
47.752277
 20
56.651708
 30
0.0
 11
47.663018
 21
57.312386
 31
0.0
  0
LINE
  5
117
100
AcDbEntity
  8
Layer_1
 62
7
100
AcDbLine
 10
47.663018
 20
57.312386
 30
0.0
 11
47.407604
 21
57.916053
 31
0.0
  0
LINE
  5
118
100
AcDbEntity
  8
Layer_1
 62
7
100
AcDbLine
 10
47.407604
 20
57.916053
 30
0.0
 11
47.003856
 21
58.432423
 31
0.0
  0
LINE
  5
119
100
AcDbEntity
  8
Layer_1
 62
7
100
AcDbLine
 10
47.003856
 20
58.432423
 30
0.0
 11
46.469599
 21
58.831211
 31
0.0
  0
LINE
  5
11a
100
AcDbEntity
  8
Layer_1
 62
7
100
AcDbLine
 10
46.469599
 20
58.831211
 30
0.0
 11
46.469599
 21
62.358989
 31
0.0
  0
LINE
  5
11b
100
AcDbEntity
  8
Layer_1
 62
7
100
AcDbLine
 10
46.469599
 20
62.358989
 30
0.0
 11
46.499365
 21
62.626880
 31
0.0
  0
LINE
  5
11c
100
AcDbEntity
  8
Layer_1
 62
7
100
AcDbLine
 10
46.499365
 20
62.626880
 30
0.0
 11
46.401836
 21
63.110151
 31
0.0
  0
LINE
  5
11d
100
AcDbEntity
  8
Layer_1
 62
7
100
AcDbLine
 10
46.401836
 20
63.110151
 30
0.0
 11
46.135829
 21
63.504843
 31
0.0
  0
LINE
  5
11e
100
AcDbEntity
  8
Layer_1
 62
7
100
AcDbLine
 10
46.135829
 20
63.504843
 30
0.0
 11
45.741256
 21
63.771025
 31
0.0
  0
LINE
  5
11f
100
AcDbEntity
  8
Layer_1
 62
7
100
AcDbLine
 10
45.741256
 20
63.771025
 30
0.0
 11
45.258028
 21
63.868768
 31
0.0
  0
LINE
  5
120
100
AcDbEntity
  8
Layer_1
 62
7
100
AcDbLine
 10
45.258028
 20
63.868768
 30
0.0
 11
45.258028
 21
63.868768
 31
0.0
  0
LINE
  5
121
100
AcDbEntity
  8
Layer_1
 62
7
100
AcDbLine
 10
185.258027
 20
63.868768
 30
0.0
 11
184.782772
 21
63.774244
 31
0.0
  0
LINE
  5
122
100
AcDbEntity
  8
Layer_1
 62
7
100
AcDbLine
 10
184.782772
 20
63.774244
 30
0.0
 11
184.379870
 21
63.505037
 31
0.0
  0
LINE
  5
123
100
AcDbEntity
  8
Layer_1
 62
7
100
AcDbLine
 10
184.379870
 20
63.505037
 30
0.0
 11
184.110663
 21
63.102135
 31
0.0
  0
LINE
  5
124
100
AcDbEntity
  8
Layer_1
 62
7
100
AcDbLine
 10
184.110663
 20
63.102135
 30
0.0
 11
184.016139
 21
62.626880
 31
0.0
  0
LINE
  5
125
100
AcDbEntity
  8
Layer_1
 62
7
100
AcDbLine
 10
184.016139
 20
62.626880
 30
0.0
 11
184.045905
 21
62.362847
 31
0.0
  0
LINE
  5
126
100
AcDbEntity
  8
Layer_1
 62
7
100
AcDbLine
 10
184.045905
 20
62.362847
 30
0.0
 11
184.045905
 21
58.828457
 31
0.0
  0
LINE
  5
127
100
AcDbEntity
  8
Layer_1
 62
7
100
AcDbLine
 10
184.045905
 20
58.828457
 30
0.0
 11
183.512151
 21
58.430163
 31
0.0
  0
LINE
  5
128
100
AcDbEntity
  8
Layer_1
 62
7
100
AcDbLine
 10
183.512151
 20
58.430163
 30
0.0
 11
183.108597
 21
57.914486
 31
0.0
  0
LINE
  5
129
100
AcDbEntity
  8
Layer_1
 62
7
100
AcDbLine
 10
183.108597
 20
57.914486
 30
0.0
 11
182.853026
 21
57.311607
 31
0.0
  0
LINE
  5
12a
100
AcDbEntity
  8
Layer_1
 62
7
100
AcDbLine
 10
182.853026
 20
57.311607
 30
0.0
 11
182.763225
 21
56.651708
 31
0.0
  0
LINE
  5
12b
100
AcDbEntity
  8
Layer_1
 62
7
100
AcDbLine
 10
182.763225
 20
56.651708
 30
0.0
 11
182.953212
 21
55.697113
 31
0.0
  0
LINE
  5
12c
100
AcDbEntity
  8
Layer_1
 62
7
100
AcDbLine
 10
182.953212
 20
55.697113
 30
0.0
 11
183.494046
 21
54.887888
 31
0.0
  0
LINE
  5
12d
100
AcDbEntity
  8
Layer_1
 62
7
100
AcDbLine
 10
183.494046
 20
54.887888
 30
0.0
 11
184.303390
 21
54.347232
 31
0.0
  0
LINE
  5
12e
100
AcDbEntity
  8
Layer_1
 62
7
100
AcDbLine
 10
184.303390
 20
54.347232
 30
0.0
 11
185.258027
 21
54.157456
 31
0.0
  0
LINE
  5
12f
100
AcDbEntity
  8
Layer_1
 62
7
100
AcDbLine
 10
185.258027
 20
54.157456
 30
0.0
 11
186.228856
 21
54.353538
 31
0.0
  0
LINE
  5
130
100
AcDbEntity
  8
Layer_1
 62
7
100
AcDbLine
 10
186.228856
 20
54.353538
 30
0.0
 11
187.021650
 21
54.888084
 31
0.0
  0
LINE
  5
131
100
AcDbEntity
  8
Layer_1
 62
7
100
AcDbLine
 10
187.021650
 20
54.888084
 30
0.0
 11
187.556196
 21
55.680879
 31
0.0
  0
LINE
  5
132
100
AcDbEntity
  8
Layer_1
 62
7
100
AcDbLine
 10
187.556196
 20
55.680879
 30
0.0
 11
187.752276
 21
56.651708
 31
0.0
  0
LINE
  5
133
100
AcDbEntity
  8
Layer_1
 62
7
100
AcDbLine
 10
187.752276
 20
56.651708
 30
0.0
 11
187.663018
 21
57.312386
 31
0.0
  0
LINE
  5
134
100
AcDbEntity
  8
Layer_1
 62
7
100
AcDbLine
 10
187.663018
 20
57.312386
 30
0.0
 11
187.407603
 21
57.916053
 31
0.0
  0
LINE
  5
135
100
AcDbEntity
  8
Layer_1
 62
7
100
AcDbLine
 10
187.407603
 20
57.916053
 30
0.0
 11
187.003855
 21
58.432423
 31
0.0
  0
LINE
  5
136
100
AcDbEntity
  8
Layer_1
 62
7
100
AcDbLine
 10
187.003855
 20
58.432423
 30
0.0
 11
186.469599
 21
58.831211
 31
0.0
  0
LINE
  5
137
100
AcDbEntity
  8
Layer_1
 62
7
100
AcDbLine
 10
186.469599
 20
58.831211
 30
0.0
 11
186.469599
 21
62.358989
 31
0.0
  0
LINE
  5
138
100
AcDbEntity
  8
Layer_1
 62
7
100
AcDbLine
 10
186.469599
 20
62.358989
 30
0.0
 11
186.499365
 21
62.626880
 31
0.0
  0
LINE
  5
139
100
AcDbEntity
  8
Layer_1
 62
7
100
AcDbLine
 10
186.499365
 20
62.626880
 30
0.0
 11
186.401835
 21
63.110151
 31
0.0
  0
LINE
  5
13a
100
AcDbEntity
  8
Layer_1
 62
7
100
AcDbLine
 10
186.401835
 20
63.110151
 30
0.0
 11
186.135828
 21
63.504843
 31
0.0
  0
LINE
  5
13b
100
AcDbEntity
  8
Layer_1
 62
7
100
AcDbLine
 10
186.135828
 20
63.504843
 30
0.0
 11
185.741255
 21
63.771025
 31
0.0
  0
LINE
  5
13c
100
AcDbEntity
  8
Layer_1
 62
7
100
AcDbLine
 10
185.741255
 20
63.771025
 30
0.0
 11
185.258027
 21
63.868768
 31
0.0
  0
LINE
  5
13d
100
AcDbEntity
  8
Layer_1
 62
7
100
AcDbLine
 10
185.258027
 20
63.868768
 30
0.0
 11
185.258027
 21
63.868768
 31
0.0
  0
LINE
  5
13e
100
AcDbEntity
  8
Layer_1
 62
7
100
AcDbLine
 10
8.979100
 20
66.332410
 30
0.0
 11
8.921329
 21
65.748502
 31
0.0
  0
LINE
  5
13f
100
AcDbEntity
  8
Layer_1
 62
7
100
AcDbLine
 10
8.921329
 20
65.748502
 30
0.0
 11
8.752330
 21
65.192357
 31
0.0
  0
LINE
  5
140
100
AcDbEntity
  8
Layer_1
 62
7
100
AcDbLine
 10
8.752330
 20
65.192357
 30
0.0
 11
8.478576
 21
64.679603
 31
0.0
  0
LINE
  5
141
100
AcDbEntity
  8
Layer_1
 62
7
100
AcDbLine
 10
8.478576
 20
64.679603
 30
0.0
 11
8.106542
 21
64.225867
 31
0.0
  0
LINE
  5
142
100
AcDbEntity
  8
Layer_1
 62
7
100
AcDbLine
 10
8.106542
 20
64.225867
 30
0.0
 11
7.652806
 21
63.853833
 31
0.0
  0
LINE
  5
143
100
AcDbEntity
  8
Layer_1
 62
7
100
AcDbLine
 10
7.652806
 20
63.853833
 30
0.0
 11
7.140052
 21
63.580079
 31
0.0
  0
LINE
  5
144
100
AcDbEntity
  8
Layer_1
 62
7
100
AcDbLine
 10
7.140052
 20
63.580079
 30
0.0
 11
6.583908
 21
63.411080
 31
0.0
  0
LINE
  5
145
100
AcDbEntity
  8
Layer_1
 62
7
100
AcDbLine
 10
6.583908
 20
63.411080
 30
0.0
 11
6.000000
 21
63.353309
 31
0.0
  0
LINE
  5
146
100
AcDbEntity
  8
Layer_1
 62
7
100
AcDbLine
 10
6.000000
 20
63.353309
 30
0.0
 11
5.416092
 21
63.411080
 31
0.0
  0
LINE
  5
147
100
AcDbEntity
  8
Layer_1
 62
7
100
AcDbLine
 10
5.416092
 20
63.411080
 30
0.0
 11
4.859947
 21
63.580079
 31
0.0
  0
LINE
  5
148
100
AcDbEntity
  8
Layer_1
 62
7
100
AcDbLine
 10
4.859947
 20
63.580079
 30
0.0
 11
4.347193
 21
63.853833
 31
0.0
  0
LINE
  5
149
100
AcDbEntity
  8
Layer_1
 62
7
100
AcDbLine
 10
4.347193
 20
63.853833
 30
0.0
 11
3.893458
 21
64.225867
 31
0.0
  0
LINE
  5
14a
100
AcDbEntity
  8
Layer_1
 62
7
100
AcDbLine
 10
3.893458
 20
64.225867
 30
0.0
 11
3.521423
 21
64.679603
 31
0.0
  0
LINE
  5
14b
100
AcDbEntity
  8
Layer_1
 62
7
100
AcDbLine
 10
3.521423
 20
64.679603
 30
0.0
 11
3.247670
 21
65.192357
 31
0.0
  0
LINE
  5
14c
100
AcDbEntity
  8
Layer_1
 62
7
100
AcDbLine
 10
3.247670
 20
65.192357
 30
0.0
 11
3.078671
 21
65.748502
 31
0.0
  0
LINE
  5
14d
100
AcDbEntity
  8
Layer_1
 62
7
100
AcDbLine
 10
3.078671
 20
65.748502
 30
0.0
 11
3.020900
 21
66.332410
 31
0.0
  0
LINE
  5
14e
100
AcDbEntity
  8
Layer_1
 62
7
100
AcDbLine
 10
3.020900
 20
66.332410
 30
0.0
 11
3.078671
 21
66.916318
 31
0.0
  0
LINE
  5
14f
100
AcDbEntity
  8
Layer_1
 62
7
100
AcDbLine
 10
3.078671
 20
66.916318
 30
0.0
 11
3.247670
 21
67.472463
 31
0.0
  0
LINE
  5
150
100
AcDbEntity
  8
Layer_1
 62
7
100
AcDbLine
 10
3.247670
 20
67.472463
 30
0.0
 11
3.521423
 21
67.985217
 31
0.0
  0
LINE
  5
151
100
AcDbEntity
  8
Layer_1
 62
7
100
AcDbLine
 10
3.521423
 20
67.985217
 30
0.0
 11
3.893458
 21
68.438952
 31
0.0
  0
LINE
  5
152
100
AcDbEntity
  8
Layer_1
 62
7
100
AcDbLine
 10
3.893458
 20
68.438952
 30
0.0
 11
4.347193
 21
68.810987
 31
0.0
  0
LINE
  5
153
100
AcDbEntity
  8
Layer_1
 62
7
100
AcDbLine
 10
4.347193
 20
68.810987
 30
0.0
 11
4.859947
 21
69.084740
 31
0.0
  0
LINE
  5
154
100
AcDbEntity
  8
Layer_1
 62
7
100
AcDbLine
 10
4.859947
 20
69.084740
 30
0.0
 11
5.416092
 21
69.253740
 31
0.0
  0
LINE
  5
155
100
AcDbEntity
  8
Layer_1
 62
7
100
AcDbLine
 10
5.416092
 20
69.253740
 30
0.0
 11
6.000000
 21
69.311511
 31
0.0
  0
LINE
  5
156
100
AcDbEntity
  8
Layer_1
 62
7
100
AcDbLine
 10
6.000000
 20
69.311511
 30
0.0
 11
6.583908
 21
69.253740
 31
0.0
  0
LINE
  5
157
100
AcDbEntity
  8
Layer_1
 62
7
100
AcDbLine
 10
6.583908
 20
69.253740
 30
0.0
 11
7.140052
 21
69.084740
 31
0.0
  0
LINE
  5
158
100
AcDbEntity
  8
Layer_1
 62
7
100
AcDbLine
 10
7.140052
 20
69.084740
 30
0.0
 11
7.652806
 21
68.810987
 31
0.0
  0
LINE
  5
159
100
AcDbEntity
  8
Layer_1
 62
7
100
AcDbLine
 10
7.652806
 20
68.810987
 30
0.0
 11
8.106542
 21
68.438952
 31
0.0
  0
LINE
  5
15a
100
AcDbEntity
  8
Layer_1
 62
7
100
AcDbLine
 10
8.106542
 20
68.438952
 30
0.0
 11
8.478576
 21
67.985217
 31
0.0
  0
LINE
  5
15b
100
AcDbEntity
  8
Layer_1
 62
7
100
AcDbLine
 10
8.478576
 20
67.985217
 30
0.0
 11
8.752330
 21
67.472463
 31
0.0
  0
LINE
  5
15c
100
AcDbEntity
  8
Layer_1
 62
7
100
AcDbLine
 10
8.752330
 20
67.472463
 30
0.0
 11
8.921329
 21
66.916318
 31
0.0
  0
LINE
  5
15d
100
AcDbEntity
  8
Layer_1
 62
7
100
AcDbLine
 10
8.921329
 20
66.916318
 30
0.0
 11
8.979100
 21
66.332410
 31
0.0
  0
LINE
  5
15e
100
AcDbEntity
  8
Layer_1
 62
7
100
AcDbLine
 10
8.979100
 20
66.332410
 30
0.0
 11
8.979100
 21
66.332410
 31
0.0
  0
LINE
  5
15f
100
AcDbEntity
  8
Layer_1
 62
7
100
AcDbLine
 10
23.896667
 20
66.332410
 30
0.0
 11
23.838896
 21
65.748502
 31
0.0
  0
LINE
  5
160
100
AcDbEntity
  8
Layer_1
 62
7
100
AcDbLine
 10
23.838896
 20
65.748502
 30
0.0
 11
23.669897
 21
65.192357
 31
0.0
  0
LINE
  5
161
100
AcDbEntity
  8
Layer_1
 62
7
100
AcDbLine
 10
23.669897
 20
65.192357
 30
0.0
 11
23.396144
 21
64.679603
 31
0.0
  0
LINE
  5
162
100
AcDbEntity
  8
Layer_1
 62
7
100
AcDbLine
 10
23.396144
 20
64.679603
 30
0.0
 11
23.024109
 21
64.225867
 31
0.0
  0
LINE
  5
163
100
AcDbEntity
  8
Layer_1
 62
7
100
AcDbLine
 10
23.024109
 20
64.225867
 30
0.0
 11
22.570373
 21
63.853833
 31
0.0
  0
LINE
  5
164
100
AcDbEntity
  8
Layer_1
 62
7
100
AcDbLine
 10
22.570373
 20
63.853833
 30
0.0
 11
22.057619
 21
63.580079
 31
0.0
  0
LINE
  5
165
100
AcDbEntity
  8
Layer_1
 62
7
100
AcDbLine
 10
22.057619
 20
63.580079
 30
0.0
 11
21.501475
 21
63.411080
 31
0.0
  0
LINE
  5
166
100
AcDbEntity
  8
Layer_1
 62
7
100
AcDbLine
 10
21.501475
 20
63.411080
 30
0.0
 11
20.917567
 21
63.353309
 31
0.0
  0
LINE
  5
167
100
AcDbEntity
  8
Layer_1
 62
7
100
AcDbLine
 10
20.917567
 20
63.353309
 30
0.0
 11
20.333659
 21
63.411080
 31
0.0
  0
LINE
  5
168
100
AcDbEntity
  8
Layer_1
 62
7
100
AcDbLine
 10
20.333659
 20
63.411080
 30
0.0
 11
19.777514
 21
63.580079
 31
0.0
  0
LINE
  5
169
100
AcDbEntity
  8
Layer_1
 62
7
100
AcDbLine
 10
19.777514
 20
63.580079
 30
0.0
 11
19.264760
 21
63.853833
 31
0.0
  0
LINE
  5
16a
100
AcDbEntity
  8
Layer_1
 62
7
100
AcDbLine
 10
19.264760
 20
63.853833
 30
0.0
 11
18.811025
 21
64.225867
 31
0.0
  0
LINE
  5
16b
100
AcDbEntity
  8
Layer_1
 62
7
100
AcDbLine
 10
18.811025
 20
64.225867
 30
0.0
 11
18.438990
 21
64.679603
 31
0.0
  0
LINE
  5
16c
100
AcDbEntity
  8
Layer_1
 62
7
100
AcDbLine
 10
18.438990
 20
64.679603
 30
0.0
 11
18.165237
 21
65.192357
 31
0.0
  0
LINE
  5
16d
100
AcDbEntity
  8
Layer_1
 62
7
100
AcDbLine
 10
18.165237
 20
65.192357
 30
0.0
 11
17.996238
 21
65.748502
 31
0.0
  0
LINE
  5
16e
100
AcDbEntity
  8
Layer_1
 62
7
100
AcDbLine
 10
17.996238
 20
65.748502
 30
0.0
 11
17.938467
 21
66.332410
 31
0.0
  0
LINE
  5
16f
100
AcDbEntity
  8
Layer_1
 62
7
100
AcDbLine
 10
17.938467
 20
66.332410
 30
0.0
 11
17.996238
 21
66.916318
 31
0.0
  0
LINE
  5
170
100
AcDbEntity
  8
Layer_1
 62
7
100
AcDbLine
 10
17.996238
 20
66.916318
 30
0.0
 11
18.165237
 21
67.472463
 31
0.0
  0
LINE
  5
171
100
AcDbEntity
  8
Layer_1
 62
7
100
AcDbLine
 10
18.165237
 20
67.472463
 30
0.0
 11
18.438990
 21
67.985217
 31
0.0
  0
LINE
  5
172
100
AcDbEntity
  8
Layer_1
 62
7
100
AcDbLine
 10
18.438990
 20
67.985217
 30
0.0
 11
18.811025
 21
68.438952
 31
0.0
  0
LINE
  5
173
100
AcDbEntity
  8
Layer_1
 62
7
100
AcDbLine
 10
18.811025
 20
68.438952
 30
0.0
 11
19.264760
 21
68.810987
 31
0.0
  0
LINE
  5
174
100
AcDbEntity
  8
Layer_1
 62
7
100
AcDbLine
 10
19.264760
 20
68.810987
 30
0.0
 11
19.777514
 21
69.084740
 31
0.0
  0
LINE
  5
175
100
AcDbEntity
  8
Layer_1
 62
7
100
AcDbLine
 10
19.777514
 20
69.084740
 30
0.0
 11
20.333659
 21
69.253740
 31
0.0
  0
LINE
  5
176
100
AcDbEntity
  8
Layer_1
 62
7
100
AcDbLine
 10
20.333659
 20
69.253740
 30
0.0
 11
20.917567
 21
69.311511
 31
0.0
  0
LINE
  5
177
100
AcDbEntity
  8
Layer_1
 62
7
100
AcDbLine
 10
20.917567
 20
69.311511
 30
0.0
 11
21.501475
 21
69.253740
 31
0.0
  0
LINE
  5
178
100
AcDbEntity
  8
Layer_1
 62
7
100
AcDbLine
 10
21.501475
 20
69.253740
 30
0.0
 11
22.057619
 21
69.084740
 31
0.0
  0
LINE
  5
179
100
AcDbEntity
  8
Layer_1
 62
7
100
AcDbLine
 10
22.057619
 20
69.084740
 30
0.0
 11
22.570373
 21
68.810987
 31
0.0
  0
LINE
  5
17a
100
AcDbEntity
  8
Layer_1
 62
7
100
AcDbLine
 10
22.570373
 20
68.810987
 30
0.0
 11
23.024109
 21
68.438952
 31
0.0
  0
LINE
  5
17b
100
AcDbEntity
  8
Layer_1
 62
7
100
AcDbLine
 10
23.024109
 20
68.438952
 30
0.0
 11
23.396144
 21
67.985217
 31
0.0
  0
LINE
  5
17c
100
AcDbEntity
  8
Layer_1
 62
7
100
AcDbLine
 10
23.396144
 20
67.985217
 30
0.0
 11
23.669897
 21
67.472463
 31
0.0
  0
LINE
  5
17d
100
AcDbEntity
  8
Layer_1
 62
7
100
AcDbLine
 10
23.669897
 20
67.472463
 30
0.0
 11
23.838896
 21
66.916318
 31
0.0
  0
LINE
  5
17e
100
AcDbEntity
  8
Layer_1
 62
7
100
AcDbLine
 10
23.838896
 20
66.916318
 30
0.0
 11
23.896667
 21
66.332410
 31
0.0
  0
LINE
  5
17f
100
AcDbEntity
  8
Layer_1
 62
7
100
AcDbLine
 10
23.896667
 20
66.332410
 30
0.0
 11
23.896667
 21
66.332410
 31
0.0
  0
LINE
  5
180
100
AcDbEntity
  8
Layer_1
 62
7
100
AcDbLine
 10
8.979100
 20
51.443827
 30
0.0
 11
8.921329
 21
50.859920
 31
0.0
  0
LINE
  5
181
100
AcDbEntity
  8
Layer_1
 62
7
100
AcDbLine
 10
8.921329
 20
50.859920
 30
0.0
 11
8.752330
 21
50.303775
 31
0.0
  0
LINE
  5
182
100
AcDbEntity
  8
Layer_1
 62
7
100
AcDbLine
 10
8.752330
 20
50.303775
 30
0.0
 11
8.478576
 21
49.791021
 31
0.0
  0
LINE
  5
183
100
AcDbEntity
  8
Layer_1
 62
7
100
AcDbLine
 10
8.478576
 20
49.791021
 30
0.0
 11
8.106542
 21
49.337285
 31
0.0
  0
LINE
  5
184
100
AcDbEntity
  8
Layer_1
 62
7
100
AcDbLine
 10
8.106542
 20
49.337285
 30
0.0
 11
7.652806
 21
48.965250
 31
0.0
  0
LINE
  5
185
100
AcDbEntity
  8
Layer_1
 62
7
100
AcDbLine
 10
7.652806
 20
48.965250
 30
0.0
 11
7.140052
 21
48.691497
 31
0.0
  0
LINE
  5
186
100
AcDbEntity
  8
Layer_1
 62
7
100
AcDbLine
 10
7.140052
 20
48.691497
 30
0.0
 11
6.583908
 21
48.522498
 31
0.0
  0
LINE
  5
187
100
AcDbEntity
  8
Layer_1
 62
7
100
AcDbLine
 10
6.583908
 20
48.522498
 30
0.0
 11
6.000000
 21
48.464726
 31
0.0
  0
LINE
  5
188
100
AcDbEntity
  8
Layer_1
 62
7
100
AcDbLine
 10
6.000000
 20
48.464726
 30
0.0
 11
5.416092
 21
48.522498
 31
0.0
  0
LINE
  5
189
100
AcDbEntity
  8
Layer_1
 62
7
100
AcDbLine
 10
5.416092
 20
48.522498
 30
0.0
 11
4.859947
 21
48.691497
 31
0.0
  0
LINE
  5
18a
100
AcDbEntity
  8
Layer_1
 62
7
100
AcDbLine
 10
4.859947
 20
48.691497
 30
0.0
 11
4.347193
 21
48.965250
 31
0.0
  0
LINE
  5
18b
100
AcDbEntity
  8
Layer_1
 62
7
100
AcDbLine
 10
4.347193
 20
48.965250
 30
0.0
 11
3.893458
 21
49.337285
 31
0.0
  0
LINE
  5
18c
100
AcDbEntity
  8
Layer_1
 62
7
100
AcDbLine
 10
3.893458
 20
49.337285
 30
0.0
 11
3.521423
 21
49.791021
 31
0.0
  0
LINE
  5
18d
100
AcDbEntity
  8
Layer_1
 62
7
100
AcDbLine
 10
3.521423
 20
49.791021
 30
0.0
 11
3.247670
 21
50.303775
 31
0.0
  0
LINE
  5
18e
100
AcDbEntity
  8
Layer_1
 62
7
100
AcDbLine
 10
3.247670
 20
50.303775
 30
0.0
 11
3.078671
 21
50.859920
 31
0.0
  0
LINE
  5
18f
100
AcDbEntity
  8
Layer_1
 62
7
100
AcDbLine
 10
3.078671
 20
50.859920
 30
0.0
 11
3.020900
 21
51.443827
 31
0.0
  0
LINE
  5
190
100
AcDbEntity
  8
Layer_1
 62
7
100
AcDbLine
 10
3.020900
 20
51.443827
 30
0.0
 11
3.078671
 21
52.027735
 31
0.0
  0
LINE
  5
191
100
AcDbEntity
  8
Layer_1
 62
7
100
AcDbLine
 10
3.078671
 20
52.027735
 30
0.0
 11
3.247670
 21
52.583880
 31
0.0
  0
LINE
  5
192
100
AcDbEntity
  8
Layer_1
 62
7
100
AcDbLine
 10
3.247670
 20
52.583880
 30
0.0
 11
3.521423
 21
53.096634
 31
0.0
  0
LINE
  5
193
100
AcDbEntity
  8
Layer_1
 62
7
100
AcDbLine
 10
3.521423
 20
53.096634
 30
0.0
 11
3.893458
 21
53.550370
 31
0.0
  0
LINE
  5
194
100
AcDbEntity
  8
Layer_1
 62
7
100
AcDbLine
 10
3.893458
 20
53.550370
 30
0.0
 11
4.347193
 21
53.922404
 31
0.0
  0
LINE
  5
195
100
AcDbEntity
  8
Layer_1
 62
7
100
AcDbLine
 10
4.347193
 20
53.922404
 30
0.0
 11
4.859947
 21
54.196158
 31
0.0
  0
LINE
  5
196
100
AcDbEntity
  8
Layer_1
 62
7
100
AcDbLine
 10
4.859947
 20
54.196158
 30
0.0
 11
5.416092
 21
54.365157
 31
0.0
  0
LINE
  5
197
100
AcDbEntity
  8
Layer_1
 62
7
100
AcDbLine
 10
5.416092
 20
54.365157
 30
0.0
 11
6.000000
 21
54.422928
 31
0.0
  0
LINE
  5
198
100
AcDbEntity
  8
Layer_1
 62
7
100
AcDbLine
 10
6.000000
 20
54.422928
 30
0.0
 11
6.583908
 21
54.365157
 31
0.0
  0
LINE
  5
199
100
AcDbEntity
  8
Layer_1
 62
7
100
AcDbLine
 10
6.583908
 20
54.365157
 30
0.0
 11
7.140052
 21
54.196158
 31
0.0
  0
LINE
  5
19a
100
AcDbEntity
  8
Layer_1
 62
7
100
AcDbLine
 10
7.140052
 20
54.196158
 30
0.0
 11
7.652806
 21
53.922404
 31
0.0
  0
LINE
  5
19b
100
AcDbEntity
  8
Layer_1
 62
7
100
AcDbLine
 10
7.652806
 20
53.922404
 30
0.0
 11
8.106542
 21
53.550370
 31
0.0
  0
LINE
  5
19c
100
AcDbEntity
  8
Layer_1
 62
7
100
AcDbLine
 10
8.106542
 20
53.550370
 30
0.0
 11
8.478576
 21
53.096634
 31
0.0
  0
LINE
  5
19d
100
AcDbEntity
  8
Layer_1
 62
7
100
AcDbLine
 10
8.478576
 20
53.096634
 30
0.0
 11
8.752330
 21
52.583880
 31
0.0
  0
LINE
  5
19e
100
AcDbEntity
  8
Layer_1
 62
7
100
AcDbLine
 10
8.752330
 20
52.583880
 30
0.0
 11
8.921329
 21
52.027735
 31
0.0
  0
LINE
  5
19f
100
AcDbEntity
  8
Layer_1
 62
7
100
AcDbLine
 10
8.921329
 20
52.027735
 30
0.0
 11
8.979100
 21
51.443827
 31
0.0
  0
LINE
  5
1a0
100
AcDbEntity
  8
Layer_1
 62
7
100
AcDbLine
 10
8.979100
 20
51.443827
 30
0.0
 11
8.979100
 21
51.443827
 31
0.0
  0
LINE
  5
1a1
100
AcDbEntity
  8
Layer_1
 62
7
100
AcDbLine
 10
23.896667
 20
51.443827
 30
0.0
 11
23.838896
 21
50.859920
 31
0.0
  0
LINE
  5
1a2
100
AcDbEntity
  8
Layer_1
 62
7
100
AcDbLine
 10
23.838896
 20
50.859920
 30
0.0
 11
23.669897
 21
50.303775
 31
0.0
  0
LINE
  5
1a3
100
AcDbEntity
  8
Layer_1
 62
7
100
AcDbLine
 10
23.669897
 20
50.303775
 30
0.0
 11
23.396144
 21
49.791021
 31
0.0
  0
LINE
  5
1a4
100
AcDbEntity
  8
Layer_1
 62
7
100
AcDbLine
 10
23.396144
 20
49.791021
 30
0.0
 11
23.024109
 21
49.337285
 31
0.0
  0
LINE
  5
1a5
100
AcDbEntity
  8
Layer_1
 62
7
100
AcDbLine
 10
23.024109
 20
49.337285
 30
0.0
 11
22.570373
 21
48.965250
 31
0.0
  0
LINE
  5
1a6
100
AcDbEntity
  8
Layer_1
 62
7
100
AcDbLine
 10
22.570373
 20
48.965250
 30
0.0
 11
22.057619
 21
48.691497
 31
0.0
  0
LINE
  5
1a7
100
AcDbEntity
  8
Layer_1
 62
7
100
AcDbLine
 10
22.057619
 20
48.691497
 30
0.0
 11
21.501475
 21
48.522498
 31
0.0
  0
LINE
  5
1a8
100
AcDbEntity
  8
Layer_1
 62
7
100
AcDbLine
 10
21.501475
 20
48.522498
 30
0.0
 11
20.917567
 21
48.464726
 31
0.0
  0
LINE
  5
1a9
100
AcDbEntity
  8
Layer_1
 62
7
100
AcDbLine
 10
20.917567
 20
48.464726
 30
0.0
 11
20.333659
 21
48.522498
 31
0.0
  0
LINE
  5
1aa
100
AcDbEntity
  8
Layer_1
 62
7
100
AcDbLine
 10
20.333659
 20
48.522498
 30
0.0
 11
19.777514
 21
48.691497
 31
0.0
  0
LINE
  5
1ab
100
AcDbEntity
  8
Layer_1
 62
7
100
AcDbLine
 10
19.777514
 20
48.691497
 30
0.0
 11
19.264760
 21
48.965250
 31
0.0
  0
LINE
  5
1ac
100
AcDbEntity
  8
Layer_1
 62
7
100
AcDbLine
 10
19.264760
 20
48.965250
 30
0.0
 11
18.811025
 21
49.337285
 31
0.0
  0
LINE
  5
1ad
100
AcDbEntity
  8
Layer_1
 62
7
100
AcDbLine
 10
18.811025
 20
49.337285
 30
0.0
 11
18.438990
 21
49.791021
 31
0.0
  0
LINE
  5
1ae
100
AcDbEntity
  8
Layer_1
 62
7
100
AcDbLine
 10
18.438990
 20
49.791021
 30
0.0
 11
18.165237
 21
50.303775
 31
0.0
  0
LINE
  5
1af
100
AcDbEntity
  8
Layer_1
 62
7
100
AcDbLine
 10
18.165237
 20
50.303775
 30
0.0
 11
17.996238
 21
50.859920
 31
0.0
  0
LINE
  5
1b0
100
AcDbEntity
  8
Layer_1
 62
7
100
AcDbLine
 10
17.996238
 20
50.859920
 30
0.0
 11
17.938467
 21
51.443827
 31
0.0
  0
LINE
  5
1b1
100
AcDbEntity
  8
Layer_1
 62
7
100
AcDbLine
 10
17.938467
 20
51.443827
 30
0.0
 11
17.996238
 21
52.027735
 31
0.0
  0
LINE
  5
1b2
100
AcDbEntity
  8
Layer_1
 62
7
100
AcDbLine
 10
17.996238
 20
52.027735
 30
0.0
 11
18.165237
 21
52.583880
 31
0.0
  0
LINE
  5
1b3
100
AcDbEntity
  8
Layer_1
 62
7
100
AcDbLine
 10
18.165237
 20
52.583880
 30
0.0
 11
18.438990
 21
53.096634
 31
0.0
  0
LINE
  5
1b4
100
AcDbEntity
  8
Layer_1
 62
7
100
AcDbLine
 10
18.438990
 20
53.096634
 30
0.0
 11
18.811025
 21
53.550370
 31
0.0
  0
LINE
  5
1b5
100
AcDbEntity
  8
Layer_1
 62
7
100
AcDbLine
 10
18.811025
 20
53.550370
 30
0.0
 11
19.264760
 21
53.922404
 31
0.0
  0
LINE
  5
1b6
100
AcDbEntity
  8
Layer_1
 62
7
100
AcDbLine
 10
19.264760
 20
53.922404
 30
0.0
 11
19.777514
 21
54.196158
 31
0.0
  0
LINE
  5
1b7
100
AcDbEntity
  8
Layer_1
 62
7
100
AcDbLine
 10
19.777514
 20
54.196158
 30
0.0
 11
20.333659
 21
54.365157
 31
0.0
  0
LINE
  5
1b8
100
AcDbEntity
  8
Layer_1
 62
7
100
AcDbLine
 10
20.333659
 20
54.365157
 30
0.0
 11
20.917567
 21
54.422928
 31
0.0
  0
LINE
  5
1b9
100
AcDbEntity
  8
Layer_1
 62
7
100
AcDbLine
 10
20.917567
 20
54.422928
 30
0.0
 11
21.501475
 21
54.365157
 31
0.0
  0
LINE
  5
1ba
100
AcDbEntity
  8
Layer_1
 62
7
100
AcDbLine
 10
21.501475
 20
54.365157
 30
0.0
 11
22.057619
 21
54.196158
 31
0.0
  0
LINE
  5
1bb
100
AcDbEntity
  8
Layer_1
 62
7
100
AcDbLine
 10
22.057619
 20
54.196158
 30
0.0
 11
22.570373
 21
53.922404
 31
0.0
  0
LINE
  5
1bc
100
AcDbEntity
  8
Layer_1
 62
7
100
AcDbLine
 10
22.570373
 20
53.922404
 30
0.0
 11
23.024109
 21
53.550370
 31
0.0
  0
LINE
  5
1bd
100
AcDbEntity
  8
Layer_1
 62
7
100
AcDbLine
 10
23.024109
 20
53.550370
 30
0.0
 11
23.396144
 21
53.096634
 31
0.0
  0
LINE
  5
1be
100
AcDbEntity
  8
Layer_1
 62
7
100
AcDbLine
 10
23.396144
 20
53.096634
 30
0.0
 11
23.669897
 21
52.583880
 31
0.0
  0
LINE
  5
1bf
100
AcDbEntity
  8
Layer_1
 62
7
100
AcDbLine
 10
23.669897
 20
52.583880
 30
0.0
 11
23.838896
 21
52.027735
 31
0.0
  0
LINE
  5
1c0
100
AcDbEntity
  8
Layer_1
 62
7
100
AcDbLine
 10
23.838896
 20
52.027735
 30
0.0
 11
23.896667
 21
51.443827
 31
0.0
  0
LINE
  5
1c1
100
AcDbEntity
  8
Layer_1
 62
7
100
AcDbLine
 10
23.896667
 20
51.443827
 30
0.0
 11
23.896667
 21
51.443827
 31
0.0
  0
LINE
  5
1c2
100
AcDbEntity
  8
Layer_1
 62
7
100
AcDbLine
 10
8.979100
 20
36.555245
 30
0.0
 11
8.921329
 21
35.971337
 31
0.0
  0
LINE
  5
1c3
100
AcDbEntity
  8
Layer_1
 62
7
100
AcDbLine
 10
8.921329
 20
35.971337
 30
0.0
 11
8.752330
 21
35.415192
 31
0.0
  0
LINE
  5
1c4
100
AcDbEntity
  8
Layer_1
 62
7
100
AcDbLine
 10
8.752330
 20
35.415192
 30
0.0
 11
8.478576
 21
34.902438
 31
0.0
  0
LINE
  5
1c5
100
AcDbEntity
  8
Layer_1
 62
7
100
AcDbLine
 10
8.478576
 20
34.902438
 30
0.0
 11
8.106542
 21
34.448702
 31
0.0
  0
LINE
  5
1c6
100
AcDbEntity
  8
Layer_1
 62
7
100
AcDbLine
 10
8.106542
 20
34.448702
 30
0.0
 11
7.652806
 21
34.076668
 31
0.0
  0
LINE
  5
1c7
100
AcDbEntity
  8
Layer_1
 62
7
100
AcDbLine
 10
7.652806
 20
34.076668
 30
0.0
 11
7.140052
 21
33.802914
 31
0.0
  0
LINE
  5
1c8
100
AcDbEntity
  8
Layer_1
 62
7
100
AcDbLine
 10
7.140052
 20
33.802914
 30
0.0
 11
6.583908
 21
33.633915
 31
0.0
  0
LINE
  5
1c9
100
AcDbEntity
  8
Layer_1
 62
7
100
AcDbLine
 10
6.583908
 20
33.633915
 30
0.0
 11
6.000000
 21
33.576144
 31
0.0
  0
LINE
  5
1ca
100
AcDbEntity
  8
Layer_1
 62
7
100
AcDbLine
 10
6.000000
 20
33.576144
 30
0.0
 11
5.416092
 21
33.633915
 31
0.0
  0
LINE
  5
1cb
100
AcDbEntity
  8
Layer_1
 62
7
100
AcDbLine
 10
5.416092
 20
33.633915
 30
0.0
 11
4.859947
 21
33.802914
 31
0.0
  0
LINE
  5
1cc
100
AcDbEntity
  8
Layer_1
 62
7
100
AcDbLine
 10
4.859947
 20
33.802914
 30
0.0
 11
4.347193
 21
34.076668
 31
0.0
  0
LINE
  5
1cd
100
AcDbEntity
  8
Layer_1
 62
7
100
AcDbLine
 10
4.347193
 20
34.076668
 30
0.0
 11
3.893458
 21
34.448702
 31
0.0
  0
LINE
  5
1ce
100
AcDbEntity
  8
Layer_1
 62
7
100
AcDbLine
 10
3.893458
 20
34.448702
 30
0.0
 11
3.521423
 21
34.902438
 31
0.0
  0
LINE
  5
1cf
100
AcDbEntity
  8
Layer_1
 62
7
100
AcDbLine
 10
3.521423
 20
34.902438
 30
0.0
 11
3.247670
 21
35.415192
 31
0.0
  0
LINE
  5
1d0
100
AcDbEntity
  8
Layer_1
 62
7
100
AcDbLine
 10
3.247670
 20
35.415192
 30
0.0
 11
3.078671
 21
35.971337
 31
0.0
  0
LINE
  5
1d1
100
AcDbEntity
  8
Layer_1
 62
7
100
AcDbLine
 10
3.078671
 20
35.971337
 30
0.0
 11
3.020900
 21
36.555245
 31
0.0
  0
LINE
  5
1d2
100
AcDbEntity
  8
Layer_1
 62
7
100
AcDbLine
 10
3.020900
 20
36.555245
 30
0.0
 11
3.081425
 21
37.155637
 31
0.0
  0
LINE
  5
1d3
100
AcDbEntity
  8
Layer_1
 62
7
100
AcDbLine
 10
3.081425
 20
37.155637
 30
0.0
 11
3.255013
 21
37.714845
 31
0.0
  0
LINE
  5
1d4
100
AcDbEntity
  8
Layer_1
 62
7
100
AcDbLine
 10
3.255013
 20
37.714845
 30
0.0
 11
3.529684
 21
38.220887
 31
0.0
  0
LINE
  5
1d5
100
AcDbEntity
  8
Layer_1
 62
7
100
AcDbLine
 10
3.529684
 20
38.220887
 30
0.0
 11
3.893459
 21
38.661786
 31
0.0
  0
LINE
  5
1d6
100
AcDbEntity
  8
Layer_1
 62
7
100
AcDbLine
 10
3.893459
 20
38.661786
 30
0.0
 11
4.334357
 21
39.025560
 31
0.0
  0
LINE
  5
1d7
100
AcDbEntity
  8
Layer_1
 62
7
100
AcDbLine
 10
4.334357
 20
39.025560
 30
0.0
 11
4.840400
 21
39.300231
 31
0.0
  0
LINE
  5
1d8
100
AcDbEntity
  8
Layer_1
 62
7
100
AcDbLine
 10
4.840400
 20
39.300231
 30
0.0
 11
5.399608
 21
39.473818
 31
0.0
  0
LINE
  5
1d9
100
AcDbEntity
  8
Layer_1
 62
7
100
AcDbLine
 10
5.399608
 20
39.473818
 30
0.0
 11
6.000000
 21
39.534343
 31
0.0
  0
LINE
  5
1da
100
AcDbEntity
  8
Layer_1
 62
7
100
AcDbLine
 10
6.000000
 20
39.534343
 30
0.0
 11
6.600392
 21
39.473818
 31
0.0
  0
LINE
  5
1db
100
AcDbEntity
  8
Layer_1
 62
7
100
AcDbLine
 10
6.600392
 20
39.473818
 30
0.0
 11
7.159600
 21
39.300231
 31
0.0
  0
LINE
  5
1dc
100
AcDbEntity
  8
Layer_1
 62
7
100
AcDbLine
 10
7.159600
 20
39.300231
 30
0.0
 11
7.665642
 21
39.025560
 31
0.0
  0
LINE
  5
1dd
100
AcDbEntity
  8
Layer_1
 62
7
100
AcDbLine
 10
7.665642
 20
39.025560
 30
0.0
 11
8.106541
 21
38.661786
 31
0.0
  0
LINE
  5
1de
100
AcDbEntity
  8
Layer_1
 62
7
100
AcDbLine
 10
8.106541
 20
38.661786
 30
0.0
 11
8.470316
 21
38.220887
 31
0.0
  0
LINE
  5
1df
100
AcDbEntity
  8
Layer_1
 62
7
100
AcDbLine
 10
8.470316
 20
38.220887
 30
0.0
 11
8.744987
 21
37.714845
 31
0.0
  0
LINE
  5
1e0
100
AcDbEntity
  8
Layer_1
 62
7
100
AcDbLine
 10
8.744987
 20
37.714845
 30
0.0
 11
8.918575
 21
37.155637
 31
0.0
  0
LINE
  5
1e1
100
AcDbEntity
  8
Layer_1
 62
7
100
AcDbLine
 10
8.918575
 20
37.155637
 30
0.0
 11
8.979100
 21
36.555245
 31
0.0
  0
LINE
  5
1e2
100
AcDbEntity
  8
Layer_1
 62
7
100
AcDbLine
 10
8.979100
 20
36.555245
 30
0.0
 11
8.979100
 21
36.555245
 31
0.0
  0
LINE
  5
1e3
100
AcDbEntity
  8
Layer_1
 62
7
100
AcDbLine
 10
23.896667
 20
36.555245
 30
0.0
 11
23.838896
 21
35.971337
 31
0.0
  0
LINE
  5
1e4
100
AcDbEntity
  8
Layer_1
 62
7
100
AcDbLine
 10
23.838896
 20
35.971337
 30
0.0
 11
23.669897
 21
35.415192
 31
0.0
  0
LINE
  5
1e5
100
AcDbEntity
  8
Layer_1
 62
7
100
AcDbLine
 10
23.669897
 20
35.415192
 30
0.0
 11
23.396144
 21
34.902438
 31
0.0
  0
LINE
  5
1e6
100
AcDbEntity
  8
Layer_1
 62
7
100
AcDbLine
 10
23.396144
 20
34.902438
 30
0.0
 11
23.024109
 21
34.448702
 31
0.0
  0
LINE
  5
1e7
100
AcDbEntity
  8
Layer_1
 62
7
100
AcDbLine
 10
23.024109
 20
34.448702
 30
0.0
 11
22.570373
 21
34.076668
 31
0.0
  0
LINE
  5
1e8
100
AcDbEntity
  8
Layer_1
 62
7
100
AcDbLine
 10
22.570373
 20
34.076668
 30
0.0
 11
22.057619
 21
33.802914
 31
0.0
  0
LINE
  5
1e9
100
AcDbEntity
  8
Layer_1
 62
7
100
AcDbLine
 10
22.057619
 20
33.802914
 30
0.0
 11
21.501475
 21
33.633915
 31
0.0
  0
LINE
  5
1ea
100
AcDbEntity
  8
Layer_1
 62
7
100
AcDbLine
 10
21.501475
 20
33.633915
 30
0.0
 11
20.917567
 21
33.576144
 31
0.0
  0
LINE
  5
1eb
100
AcDbEntity
  8
Layer_1
 62
7
100
AcDbLine
 10
20.917567
 20
33.576144
 30
0.0
 11
20.333659
 21
33.633915
 31
0.0
  0
LINE
  5
1ec
100
AcDbEntity
  8
Layer_1
 62
7
100
AcDbLine
 10
20.333659
 20
33.633915
 30
0.0
 11
19.777514
 21
33.802914
 31
0.0
  0
LINE
  5
1ed
100
AcDbEntity
  8
Layer_1
 62
7
100
AcDbLine
 10
19.777514
 20
33.802914
 30
0.0
 11
19.264760
 21
34.076668
 31
0.0
  0
LINE
  5
1ee
100
AcDbEntity
  8
Layer_1
 62
7
100
AcDbLine
 10
19.264760
 20
34.076668
 30
0.0
 11
18.811025
 21
34.448702
 31
0.0
  0
LINE
  5
1ef
100
AcDbEntity
  8
Layer_1
 62
7
100
AcDbLine
 10
18.811025
 20
34.448702
 30
0.0
 11
18.438990
 21
34.902438
 31
0.0
  0
LINE
  5
1f0
100
AcDbEntity
  8
Layer_1
 62
7
100
AcDbLine
 10
18.438990
 20
34.902438
 30
0.0
 11
18.165237
 21
35.415192
 31
0.0
  0
LINE
  5
1f1
100
AcDbEntity
  8
Layer_1
 62
7
100
AcDbLine
 10
18.165237
 20
35.415192
 30
0.0
 11
17.996238
 21
35.971337
 31
0.0
  0
LINE
  5
1f2
100
AcDbEntity
  8
Layer_1
 62
7
100
AcDbLine
 10
17.996238
 20
35.971337
 30
0.0
 11
17.938467
 21
36.555245
 31
0.0
  0
LINE
  5
1f3
100
AcDbEntity
  8
Layer_1
 62
7
100
AcDbLine
 10
17.938467
 20
36.555245
 30
0.0
 11
17.998992
 21
37.155637
 31
0.0
  0
LINE
  5
1f4
100
AcDbEntity
  8
Layer_1
 62
7
100
AcDbLine
 10
17.998992
 20
37.155637
 30
0.0
 11
18.172580
 21
37.714845
 31
0.0
  0
LINE
  5
1f5
100
AcDbEntity
  8
Layer_1
 62
7
100
AcDbLine
 10
18.172580
 20
37.714845
 30
0.0
 11
18.447251
 21
38.220887
 31
0.0
  0
LINE
  5
1f6
100
AcDbEntity
  8
Layer_1
 62
7
100
AcDbLine
 10
18.447251
 20
38.220887
 30
0.0
 11
18.811026
 21
38.661786
 31
0.0
  0
LINE
  5
1f7
100
AcDbEntity
  8
Layer_1
 62
7
100
AcDbLine
 10
18.811026
 20
38.661786
 30
0.0
 11
19.251924
 21
39.025560
 31
0.0
  0
LINE
  5
1f8
100
AcDbEntity
  8
Layer_1
 62
7
100
AcDbLine
 10
19.251924
 20
39.025560
 30
0.0
 11
19.757967
 21
39.300231
 31
0.0
  0
LINE
  5
1f9
100
AcDbEntity
  8
Layer_1
 62
7
100
AcDbLine
 10
19.757967
 20
39.300231
 30
0.0
 11
20.317175
 21
39.473818
 31
0.0
  0
LINE
  5
1fa
100
AcDbEntity
  8
Layer_1
 62
7
100
AcDbLine
 10
20.317175
 20
39.473818
 30
0.0
 11
20.917567
 21
39.534343
 31
0.0
  0
LINE
  5
1fb
100
AcDbEntity
  8
Layer_1
 62
7
100
AcDbLine
 10
20.917567
 20
39.534343
 30
0.0
 11
21.517959
 21
39.473818
 31
0.0
  0
LINE
  5
1fc
100
AcDbEntity
  8
Layer_1
 62
7
100
AcDbLine
 10
21.517959
 20
39.473818
 30
0.0
 11
22.077167
 21
39.300231
 31
0.0
  0
LINE
  5
1fd
100
AcDbEntity
  8
Layer_1
 62
7
100
AcDbLine
 10
22.077167
 20
39.300231
 30
0.0
 11
22.583209
 21
39.025560
 31
0.0
  0
LINE
  5
1fe
100
AcDbEntity
  8
Layer_1
 62
7
100
AcDbLine
 10
22.583209
 20
39.025560
 30
0.0
 11
23.024108
 21
38.661786
 31
0.0
  0
LINE
  5
1ff
100
AcDbEntity
  8
Layer_1
 62
7
100
AcDbLine
 10
23.024108
 20
38.661786
 30
0.0
 11
23.387883
 21
38.220887
 31
0.0
  0
LINE
  5
200
100
AcDbEntity
  8
Layer_1
 62
7
100
AcDbLine
 10
23.387883
 20
38.220887
 30
0.0
 11
23.662554
 21
37.714845
 31
0.0
  0
LINE
  5
201
100
AcDbEntity
  8
Layer_1
 62
7
100
AcDbLine
 10
23.662554
 20
37.714845
 30
0.0
 11
23.836142
 21
37.155637
 31
0.0
  0
LINE
  5
202
100
AcDbEntity
  8
Layer_1
 62
7
100
AcDbLine
 10
23.836142
 20
37.155637
 30
0.0
 11
23.896667
 21
36.555245
 31
0.0
  0
LINE
  5
203
100
AcDbEntity
  8
Layer_1
 62
7
100
AcDbLine
 10
23.896667
 20
36.555245
 30
0.0
 11
23.896667
 21
36.555245
 31
0.0
  0
LINE
  5
204
100
AcDbEntity
  8
Layer_1
 62
7
100
AcDbLine
 10
8.979100
 20
21.666643
 30
0.0
 11
8.921329
 21
21.082735
 31
0.0
  0
LINE
  5
205
100
AcDbEntity
  8
Layer_1
 62
7
100
AcDbLine
 10
8.921329
 20
21.082735
 30
0.0
 11
8.752330
 21
20.526590
 31
0.0
  0
LINE
  5
206
100
AcDbEntity
  8
Layer_1
 62
7
100
AcDbLine
 10
8.752330
 20
20.526590
 30
0.0
 11
8.478576
 21
20.013836
 31
0.0
  0
LINE
  5
207
100
AcDbEntity
  8
Layer_1
 62
7
100
AcDbLine
 10
8.478576
 20
20.013836
 30
0.0
 11
8.106542
 21
19.560100
 31
0.0
  0
LINE
  5
208
100
AcDbEntity
  8
Layer_1
 62
7
100
AcDbLine
 10
8.106542
 20
19.560100
 30
0.0
 11
7.652806
 21
19.188065
 31
0.0
  0
LINE
  5
209
100
AcDbEntity
  8
Layer_1
 62
7
100
AcDbLine
 10
7.652806
 20
19.188065
 30
0.0
 11
7.140052
 21
18.914312
 31
0.0
  0
LINE
  5
20a
100
AcDbEntity
  8
Layer_1
 62
7
100
AcDbLine
 10
7.140052
 20
18.914312
 30
0.0
 11
6.583908
 21
18.745313
 31
0.0
  0
LINE
  5
20b
100
AcDbEntity
  8
Layer_1
 62
7
100
AcDbLine
 10
6.583908
 20
18.745313
 30
0.0
 11
6.000000
 21
18.687541
 31
0.0
  0
LINE
  5
20c
100
AcDbEntity
  8
Layer_1
 62
7
100
AcDbLine
 10
6.000000
 20
18.687541
 30
0.0
 11
5.416092
 21
18.745313
 31
0.0
  0
LINE
  5
20d
100
AcDbEntity
  8
Layer_1
 62
7
100
AcDbLine
 10
5.416092
 20
18.745313
 30
0.0
 11
4.859947
 21
18.914312
 31
0.0
  0
LINE
  5
20e
100
AcDbEntity
  8
Layer_1
 62
7
100
AcDbLine
 10
4.859947
 20
18.914312
 30
0.0
 11
4.347193
 21
19.188065
 31
0.0
  0
LINE
  5
20f
100
AcDbEntity
  8
Layer_1
 62
7
100
AcDbLine
 10
4.347193
 20
19.188065
 30
0.0
 11
3.893458
 21
19.560100
 31
0.0
  0
LINE
  5
210
100
AcDbEntity
  8
Layer_1
 62
7
100
AcDbLine
 10
3.893458
 20
19.560100
 30
0.0
 11
3.521423
 21
20.013836
 31
0.0
  0
LINE
  5
211
100
AcDbEntity
  8
Layer_1
 62
7
100
AcDbLine
 10
3.521423
 20
20.013836
 30
0.0
 11
3.247670
 21
20.526590
 31
0.0
  0
LINE
  5
212
100
AcDbEntity
  8
Layer_1
 62
7
100
AcDbLine
 10
3.247670
 20
20.526590
 30
0.0
 11
3.078671
 21
21.082735
 31
0.0
  0
LINE
  5
213
100
AcDbEntity
  8
Layer_1
 62
7
100
AcDbLine
 10
3.078671
 20
21.082735
 30
0.0
 11
3.020900
 21
21.666643
 31
0.0
  0
LINE
  5
214
100
AcDbEntity
  8
Layer_1
 62
7
100
AcDbLine
 10
3.020900
 20
21.666643
 30
0.0
 11
3.078671
 21
22.250550
 31
0.0
  0
LINE
  5
215
100
AcDbEntity
  8
Layer_1
 62
7
100
AcDbLine
 10
3.078671
 20
22.250550
 30
0.0
 11
3.247670
 21
22.806695
 31
0.0
  0
LINE
  5
216
100
AcDbEntity
  8
Layer_1
 62
7
100
AcDbLine
 10
3.247670
 20
22.806695
 30
0.0
 11
3.521423
 21
23.319449
 31
0.0
  0
LINE
  5
217
100
AcDbEntity
  8
Layer_1
 62
7
100
AcDbLine
 10
3.521423
 20
23.319449
 30
0.0
 11
3.893458
 21
23.773185
 31
0.0
  0
LINE
  5
218
100
AcDbEntity
  8
Layer_1
 62
7
100
AcDbLine
 10
3.893458
 20
23.773185
 30
0.0
 11
4.347193
 21
24.145220
 31
0.0
  0
LINE
  5
219
100
AcDbEntity
  8
Layer_1
 62
7
100
AcDbLine
 10
4.347193
 20
24.145220
 30
0.0
 11
4.859947
 21
24.418973
 31
0.0
  0
LINE
  5
21a
100
AcDbEntity
  8
Layer_1
 62
7
100
AcDbLine
 10
4.859947
 20
24.418973
 30
0.0
 11
5.416092
 21
24.587972
 31
0.0
  0
LINE
  5
21b
100
AcDbEntity
  8
Layer_1
 62
7
100
AcDbLine
 10
5.416092
 20
24.587972
 30
0.0
 11
6.000000
 21
24.645744
 31
0.0
  0
LINE
  5
21c
100
AcDbEntity
  8
Layer_1
 62
7
100
AcDbLine
 10
6.000000
 20
24.645744
 30
0.0
 11
6.583908
 21
24.587972
 31
0.0
  0
LINE
  5
21d
100
AcDbEntity
  8
Layer_1
 62
7
100
AcDbLine
 10
6.583908
 20
24.587972
 30
0.0
 11
7.140052
 21
24.418973
 31
0.0
  0
LINE
  5
21e
100
AcDbEntity
  8
Layer_1
 62
7
100
AcDbLine
 10
7.140052
 20
24.418973
 30
0.0
 11
7.652806
 21
24.145220
 31
0.0
  0
LINE
  5
21f
100
AcDbEntity
  8
Layer_1
 62
7
100
AcDbLine
 10
7.652806
 20
24.145220
 30
0.0
 11
8.106542
 21
23.773185
 31
0.0
  0
LINE
  5
220
100
AcDbEntity
  8
Layer_1
 62
7
100
AcDbLine
 10
8.106542
 20
23.773185
 30
0.0
 11
8.478576
 21
23.319449
 31
0.0
  0
LINE
  5
221
100
AcDbEntity
  8
Layer_1
 62
7
100
AcDbLine
 10
8.478576
 20
23.319449
 30
0.0
 11
8.752330
 21
22.806695
 31
0.0
  0
LINE
  5
222
100
AcDbEntity
  8
Layer_1
 62
7
100
AcDbLine
 10
8.752330
 20
22.806695
 30
0.0
 11
8.921329
 21
22.250550
 31
0.0
  0
LINE
  5
223
100
AcDbEntity
  8
Layer_1
 62
7
100
AcDbLine
 10
8.921329
 20
22.250550
 30
0.0
 11
8.979100
 21
21.666643
 31
0.0
  0
LINE
  5
224
100
AcDbEntity
  8
Layer_1
 62
7
100
AcDbLine
 10
8.979100
 20
21.666643
 30
0.0
 11
8.979100
 21
21.666643
 31
0.0
  0
LINE
  5
225
100
AcDbEntity
  8
Layer_1
 62
7
100
AcDbLine
 10
23.896667
 20
21.666643
 30
0.0
 11
23.838896
 21
21.082735
 31
0.0
  0
LINE
  5
226
100
AcDbEntity
  8
Layer_1
 62
7
100
AcDbLine
 10
23.838896
 20
21.082735
 30
0.0
 11
23.669897
 21
20.526590
 31
0.0
  0
LINE
  5
227
100
AcDbEntity
  8
Layer_1
 62
7
100
AcDbLine
 10
23.669897
 20
20.526590
 30
0.0
 11
23.396144
 21
20.013836
 31
0.0
  0
LINE
  5
228
100
AcDbEntity
  8
Layer_1
 62
7
100
AcDbLine
 10
23.396144
 20
20.013836
 30
0.0
 11
23.024109
 21
19.560100
 31
0.0
  0
LINE
  5
229
100
AcDbEntity
  8
Layer_1
 62
7
100
AcDbLine
 10
23.024109
 20
19.560100
 30
0.0
 11
22.570373
 21
19.188065
 31
0.0
  0
LINE
  5
22a
100
AcDbEntity
  8
Layer_1
 62
7
100
AcDbLine
 10
22.570373
 20
19.188065
 30
0.0
 11
22.057619
 21
18.914312
 31
0.0
  0
LINE
  5
22b
100
AcDbEntity
  8
Layer_1
 62
7
100
AcDbLine
 10
22.057619
 20
18.914312
 30
0.0
 11
21.501475
 21
18.745313
 31
0.0
  0
LINE
  5
22c
100
AcDbEntity
  8
Layer_1
 62
7
100
AcDbLine
 10
21.501475
 20
18.745313
 30
0.0
 11
20.917567
 21
18.687541
 31
0.0
  0
LINE
  5
22d
100
AcDbEntity
  8
Layer_1
 62
7
100
AcDbLine
 10
20.917567
 20
18.687541
 30
0.0
 11
20.333659
 21
18.745313
 31
0.0
  0
LINE
  5
22e
100
AcDbEntity
  8
Layer_1
 62
7
100
AcDbLine
 10
20.333659
 20
18.745313
 30
0.0
 11
19.777514
 21
18.914312
 31
0.0
  0
LINE
  5
22f
100
AcDbEntity
  8
Layer_1
 62
7
100
AcDbLine
 10
19.777514
 20
18.914312
 30
0.0
 11
19.264760
 21
19.188065
 31
0.0
  0
LINE
  5
230
100
AcDbEntity
  8
Layer_1
 62
7
100
AcDbLine
 10
19.264760
 20
19.188065
 30
0.0
 11
18.811025
 21
19.560100
 31
0.0
  0
LINE
  5
231
100
AcDbEntity
  8
Layer_1
 62
7
100
AcDbLine
 10
18.811025
 20
19.560100
 30
0.0
 11
18.438990
 21
20.013836
 31
0.0
  0
LINE
  5
232
100
AcDbEntity
  8
Layer_1
 62
7
100
AcDbLine
 10
18.438990
 20
20.013836
 30
0.0
 11
18.165237
 21
20.526590
 31
0.0
  0
LINE
  5
233
100
AcDbEntity
  8
Layer_1
 62
7
100
AcDbLine
 10
18.165237
 20
20.526590
 30
0.0
 11
17.996238
 21
21.082735
 31
0.0
  0
LINE
  5
234
100
AcDbEntity
  8
Layer_1
 62
7
100
AcDbLine
 10
17.996238
 20
21.082735
 30
0.0
 11
17.938467
 21
21.666643
 31
0.0
  0
LINE
  5
235
100
AcDbEntity
  8
Layer_1
 62
7
100
AcDbLine
 10
17.938467
 20
21.666643
 30
0.0
 11
17.996238
 21
22.250550
 31
0.0
  0
LINE
  5
236
100
AcDbEntity
  8
Layer_1
 62
7
100
AcDbLine
 10
17.996238
 20
22.250550
 30
0.0
 11
18.165237
 21
22.806695
 31
0.0
  0
LINE
  5
237
100
AcDbEntity
  8
Layer_1
 62
7
100
AcDbLine
 10
18.165237
 20
22.806695
 30
0.0
 11
18.438990
 21
23.319449
 31
0.0
  0
LINE
  5
238
100
AcDbEntity
  8
Layer_1
 62
7
100
AcDbLine
 10
18.438990
 20
23.319449
 30
0.0
 11
18.811025
 21
23.773185
 31
0.0
  0
LINE
  5
239
100
AcDbEntity
  8
Layer_1
 62
7
100
AcDbLine
 10
18.811025
 20
23.773185
 30
0.0
 11
19.264760
 21
24.145220
 31
0.0
  0
LINE
  5
23a
100
AcDbEntity
  8
Layer_1
 62
7
100
AcDbLine
 10
19.264760
 20
24.145220
 30
0.0
 11
19.777514
 21
24.418973
 31
0.0
  0
LINE
  5
23b
100
AcDbEntity
  8
Layer_1
 62
7
100
AcDbLine
 10
19.777514
 20
24.418973
 30
0.0
 11
20.333659
 21
24.587972
 31
0.0
  0
LINE
  5
23c
100
AcDbEntity
  8
Layer_1
 62
7
100
AcDbLine
 10
20.333659
 20
24.587972
 30
0.0
 11
20.917567
 21
24.645744
 31
0.0
  0
LINE
  5
23d
100
AcDbEntity
  8
Layer_1
 62
7
100
AcDbLine
 10
20.917567
 20
24.645744
 30
0.0
 11
21.501475
 21
24.587972
 31
0.0
  0
LINE
  5
23e
100
AcDbEntity
  8
Layer_1
 62
7
100
AcDbLine
 10
21.501475
 20
24.587972
 30
0.0
 11
22.057619
 21
24.418973
 31
0.0
  0
LINE
  5
23f
100
AcDbEntity
  8
Layer_1
 62
7
100
AcDbLine
 10
22.057619
 20
24.418973
 30
0.0
 11
22.570373
 21
24.145220
 31
0.0
  0
LINE
  5
240
100
AcDbEntity
  8
Layer_1
 62
7
100
AcDbLine
 10
22.570373
 20
24.145220
 30
0.0
 11
23.024109
 21
23.773185
 31
0.0
  0
LINE
  5
241
100
AcDbEntity
  8
Layer_1
 62
7
100
AcDbLine
 10
23.024109
 20
23.773185
 30
0.0
 11
23.396144
 21
23.319449
 31
0.0
  0
LINE
  5
242
100
AcDbEntity
  8
Layer_1
 62
7
100
AcDbLine
 10
23.396144
 20
23.319449
 30
0.0
 11
23.669897
 21
22.806695
 31
0.0
  0
LINE
  5
243
100
AcDbEntity
  8
Layer_1
 62
7
100
AcDbLine
 10
23.669897
 20
22.806695
 30
0.0
 11
23.838896
 21
22.250550
 31
0.0
  0
LINE
  5
244
100
AcDbEntity
  8
Layer_1
 62
7
100
AcDbLine
 10
23.838896
 20
22.250550
 30
0.0
 11
23.896667
 21
21.666643
 31
0.0
  0
LINE
  5
245
100
AcDbEntity
  8
Layer_1
 62
7
100
AcDbLine
 10
23.896667
 20
21.666643
 30
0.0
 11
23.896667
 21
21.666643
 31
0.0
  0
LINE
  5
246
100
AcDbEntity
  8
Layer_1
 62
7
100
AcDbLine
 10
16.437885
 20
59.298196
 30
0.0
 11
16.380113
 21
58.714288
 31
0.0
  0
LINE
  5
247
100
AcDbEntity
  8
Layer_1
 62
7
100
AcDbLine
 10
16.380113
 20
58.714288
 30
0.0
 11
16.211114
 21
58.158143
 31
0.0
  0
LINE
  5
248
100
AcDbEntity
  8
Layer_1
 62
7
100
AcDbLine
 10
16.211114
 20
58.158143
 30
0.0
 11
15.937361
 21
57.645389
 31
0.0
  0
LINE
  5
249
100
AcDbEntity
  8
Layer_1
 62
7
100
AcDbLine
 10
15.937361
 20
57.645389
 30
0.0
 11
15.565327
 21
57.191653
 31
0.0
  0
LINE
  5
24a
100
AcDbEntity
  8
Layer_1
 62
7
100
AcDbLine
 10
15.565327
 20
57.191653
 30
0.0
 11
15.111591
 21
56.819619
 31
0.0
  0
LINE
  5
24b
100
AcDbEntity
  8
Layer_1
 62
7
100
AcDbLine
 10
15.111591
 20
56.819619
 30
0.0
 11
14.598837
 21
56.545866
 31
0.0
  0
LINE
  5
24c
100
AcDbEntity
  8
Layer_1
 62
7
100
AcDbLine
 10
14.598837
 20
56.545866
 30
0.0
 11
14.042692
 21
56.376866
 31
0.0
  0
LINE
  5
24d
100
AcDbEntity
  8
Layer_1
 62
7
100
AcDbLine
 10
14.042692
 20
56.376866
 30
0.0
 11
13.458784
 21
56.319095
 31
0.0
  0
LINE
  5
24e
100
AcDbEntity
  8
Layer_1
 62
7
100
AcDbLine
 10
13.458784
 20
56.319095
 30
0.0
 11
12.874877
 21
56.376866
 31
0.0
  0
LINE
  5
24f
100
AcDbEntity
  8
Layer_1
 62
7
100
AcDbLine
 10
12.874877
 20
56.376866
 30
0.0
 11
12.318732
 21
56.545866
 31
0.0
  0
LINE
  5
250
100
AcDbEntity
  8
Layer_1
 62
7
100
AcDbLine
 10
12.318732
 20
56.545866
 30
0.0
 11
11.805978
 21
56.819619
 31
0.0
  0
LINE
  5
251
100
AcDbEntity
  8
Layer_1
 62
7
100
AcDbLine
 10
11.805978
 20
56.819619
 30
0.0
 11
11.352242
 21
57.191653
 31
0.0
  0
LINE
  5
252
100
AcDbEntity
  8
Layer_1
 62
7
100
AcDbLine
 10
11.352242
 20
57.191653
 30
0.0
 11
10.980208
 21
57.645389
 31
0.0
  0
LINE
  5
253
100
AcDbEntity
  8
Layer_1
 62
7
100
AcDbLine
 10
10.980208
 20
57.645389
 30
0.0
 11
10.706454
 21
58.158143
 31
0.0
  0
LINE
  5
254
100
AcDbEntity
  8
Layer_1
 62
7
100
AcDbLine
 10
10.706454
 20
58.158143
 30
0.0
 11
10.537456
 21
58.714288
 31
0.0
  0
LINE
  5
255
100
AcDbEntity
  8
Layer_1
 62
7
100
AcDbLine
 10
10.537456
 20
58.714288
 30
0.0
 11
10.479684
 21
59.298196
 31
0.0
  0
LINE
  5
256
100
AcDbEntity
  8
Layer_1
 62
7
100
AcDbLine
 10
10.479684
 20
59.298196
 30
0.0
 11
10.537456
 21
59.882104
 31
0.0
  0
LINE
  5
257
100
AcDbEntity
  8
Layer_1
 62
7
100
AcDbLine
 10
10.537456
 20
59.882104
 30
0.0
 11
10.706454
 21
60.438249
 31
0.0
  0
LINE
  5
258
100
AcDbEntity
  8
Layer_1
 62
7
100
AcDbLine
 10
10.706454
 20
60.438249
 30
0.0
 11
10.980208
 21
60.951003
 31
0.0
  0
LINE
  5
259
100
AcDbEntity
  8
Layer_1
 62
7
100
AcDbLine
 10
10.980208
 20
60.951003
 30
0.0
 11
11.352242
 21
61.404739
 31
0.0
  0
LINE
  5
25a
100
AcDbEntity
  8
Layer_1
 62
7
100
AcDbLine
 10
11.352242
 20
61.404739
 30
0.0
 11
11.805978
 21
61.776773
 31
0.0
  0
LINE
  5
25b
100
AcDbEntity
  8
Layer_1
 62
7
100
AcDbLine
 10
11.805978
 20
61.776773
 30
0.0
 11
12.318732
 21
62.050527
 31
0.0
  0
LINE
  5
25c
100
AcDbEntity
  8
Layer_1
 62
7
100
AcDbLine
 10
12.318732
 20
62.050527
 30
0.0
 11
12.874877
 21
62.219526
 31
0.0
  0
LINE
  5
25d
100
AcDbEntity
  8
Layer_1
 62
7
100
AcDbLine
 10
12.874877
 20
62.219526
 30
0.0
 11
13.458784
 21
62.277297
 31
0.0
  0
LINE
  5
25e
100
AcDbEntity
  8
Layer_1
 62
7
100
AcDbLine
 10
13.458784
 20
62.277297
 30
0.0
 11
14.042692
 21
62.219526
 31
0.0
  0
LINE
  5
25f
100
AcDbEntity
  8
Layer_1
 62
7
100
AcDbLine
 10
14.042692
 20
62.219526
 30
0.0
 11
14.598837
 21
62.050527
 31
0.0
  0
LINE
  5
260
100
AcDbEntity
  8
Layer_1
 62
7
100
AcDbLine
 10
14.598837
 20
62.050527
 30
0.0
 11
15.111591
 21
61.776773
 31
0.0
  0
LINE
  5
261
100
AcDbEntity
  8
Layer_1
 62
7
100
AcDbLine
 10
15.111591
 20
61.776773
 30
0.0
 11
15.565327
 21
61.404739
 31
0.0
  0
LINE
  5
262
100
AcDbEntity
  8
Layer_1
 62
7
100
AcDbLine
 10
15.565327
 20
61.404739
 30
0.0
 11
15.937361
 21
60.951003
 31
0.0
  0
LINE
  5
263
100
AcDbEntity
  8
Layer_1
 62
7
100
AcDbLine
 10
15.937361
 20
60.951003
 30
0.0
 11
16.211114
 21
60.438249
 31
0.0
  0
LINE
  5
264
100
AcDbEntity
  8
Layer_1
 62
7
100
AcDbLine
 10
16.211114
 20
60.438249
 30
0.0
 11
16.380113
 21
59.882104
 31
0.0
  0
LINE
  5
265
100
AcDbEntity
  8
Layer_1
 62
7
100
AcDbLine
 10
16.380113
 20
59.882104
 30
0.0
 11
16.437885
 21
59.298196
 31
0.0
  0
LINE
  5
266
100
AcDbEntity
  8
Layer_1
 62
7
100
AcDbLine
 10
16.437885
 20
59.298196
 30
0.0
 11
16.437885
 21
59.298196
 31
0.0
  0
LINE
  5
267
100
AcDbEntity
  8
Layer_1
 62
7
100
AcDbLine
 10
31.355448
 20
59.298196
 30
0.0
 11
31.294923
 21
58.697804
 31
0.0
  0
LINE
  5
268
100
AcDbEntity
  8
Layer_1
 62
7
100
AcDbLine
 10
31.294923
 20
58.697804
 30
0.0
 11
31.121336
 21
58.138596
 31
0.0
  0
LINE
  5
269
100
AcDbEntity
  8
Layer_1
 62
7
100
AcDbLine
 10
31.121336
 20
58.138596
 30
0.0
 11
30.846665
 21
57.632553
 31
0.0
  0
LINE
  5
26a
100
AcDbEntity
  8
Layer_1
 62
7
100
AcDbLine
 10
30.846665
 20
57.632553
 30
0.0
 11
30.482890
 21
57.191654
 31
0.0
  0
LINE
  5
26b
100
AcDbEntity
  8
Layer_1
 62
7
100
AcDbLine
 10
30.482890
 20
57.191654
 30
0.0
 11
30.041992
 21
56.827879
 31
0.0
  0
LINE
  5
26c
100
AcDbEntity
  8
Layer_1
 62
7
100
AcDbLine
 10
30.041992
 20
56.827879
 30
0.0
 11
29.535949
 21
56.553208
 31
0.0
  0
LINE
  5
26d
100
AcDbEntity
  8
Layer_1
 62
7
100
AcDbLine
 10
29.535949
 20
56.553208
 30
0.0
 11
28.976742
 21
56.379620
 31
0.0
  0
LINE
  5
26e
100
AcDbEntity
  8
Layer_1
 62
7
100
AcDbLine
 10
28.976742
 20
56.379620
 30
0.0
 11
28.376349
 21
56.319095
 31
0.0
  0
LINE
  5
26f
100
AcDbEntity
  8
Layer_1
 62
7
100
AcDbLine
 10
28.376349
 20
56.319095
 30
0.0
 11
27.792442
 21
56.376866
 31
0.0
  0
LINE
  5
270
100
AcDbEntity
  8
Layer_1
 62
7
100
AcDbLine
 10
27.792442
 20
56.376866
 30
0.0
 11
27.236297
 21
56.545866
 31
0.0
  0
LINE
  5
271
100
AcDbEntity
  8
Layer_1
 62
7
100
AcDbLine
 10
27.236297
 20
56.545866
 30
0.0
 11
26.723543
 21
56.819619
 31
0.0
  0
LINE
  5
272
100
AcDbEntity
  8
Layer_1
 62
7
100
AcDbLine
 10
26.723543
 20
56.819619
 30
0.0
 11
26.269807
 21
57.191653
 31
0.0
  0
LINE
  5
273
100
AcDbEntity
  8
Layer_1
 62
7
100
AcDbLine
 10
26.269807
 20
57.191653
 30
0.0
 11
25.897773
 21
57.645389
 31
0.0
  0
LINE
  5
274
100
AcDbEntity
  8
Layer_1
 62
7
100
AcDbLine
 10
25.897773
 20
57.645389
 30
0.0
 11
25.624020
 21
58.158143
 31
0.0
  0
LINE
  5
275
100
AcDbEntity
  8
Layer_1
 62
7
100
AcDbLine
 10
25.624020
 20
58.158143
 30
0.0
 11
25.455021
 21
58.714288
 31
0.0
  0
LINE
  5
276
100
AcDbEntity
  8
Layer_1
 62
7
100
AcDbLine
 10
25.455021
 20
58.714288
 30
0.0
 11
25.397249
 21
59.298196
 31
0.0
  0
LINE
  5
277
100
AcDbEntity
  8
Layer_1
 62
7
100
AcDbLine
 10
25.397249
 20
59.298196
 30
0.0
 11
25.455021
 21
59.882104
 31
0.0
  0
LINE
  5
278
100
AcDbEntity
  8
Layer_1
 62
7
100
AcDbLine
 10
25.455021
 20
59.882104
 30
0.0
 11
25.624020
 21
60.438249
 31
0.0
  0
LINE
  5
279
100
AcDbEntity
  8
Layer_1
 62
7
100
AcDbLine
 10
25.624020
 20
60.438249
 30
0.0
 11
25.897773
 21
60.951003
 31
0.0
  0
LINE
  5
27a
100
AcDbEntity
  8
Layer_1
 62
7
100
AcDbLine
 10
25.897773
 20
60.951003
 30
0.0
 11
26.269807
 21
61.404739
 31
0.0
  0
LINE
  5
27b
100
AcDbEntity
  8
Layer_1
 62
7
100
AcDbLine
 10
26.269807
 20
61.404739
 30
0.0
 11
26.723543
 21
61.776773
 31
0.0
  0
LINE
  5
27c
100
AcDbEntity
  8
Layer_1
 62
7
100
AcDbLine
 10
26.723543
 20
61.776773
 30
0.0
 11
27.236297
 21
62.050527
 31
0.0
  0
LINE
  5
27d
100
AcDbEntity
  8
Layer_1
 62
7
100
AcDbLine
 10
27.236297
 20
62.050527
 30
0.0
 11
27.792442
 21
62.219526
 31
0.0
  0
LINE
  5
27e
100
AcDbEntity
  8
Layer_1
 62
7
100
AcDbLine
 10
27.792442
 20
62.219526
 30
0.0
 11
28.376349
 21
62.277297
 31
0.0
  0
LINE
  5
27f
100
AcDbEntity
  8
Layer_1
 62
7
100
AcDbLine
 10
28.376349
 20
62.277297
 30
0.0
 11
28.976742
 21
62.216772
 31
0.0
  0
LINE
  5
280
100
AcDbEntity
  8
Layer_1
 62
7
100
AcDbLine
 10
28.976742
 20
62.216772
 30
0.0
 11
29.535949
 21
62.043184
 31
0.0
  0
LINE
  5
281
100
AcDbEntity
  8
Layer_1
 62
7
100
AcDbLine
 10
29.535949
 20
62.043184
 30
0.0
 11
30.041992
 21
61.768513
 31
0.0
  0
LINE
  5
282
100
AcDbEntity
  8
Layer_1
 62
7
100
AcDbLine
 10
30.041992
 20
61.768513
 30
0.0
 11
30.482890
 21
61.404738
 31
0.0
  0
LINE
  5
283
100
AcDbEntity
  8
Layer_1
 62
7
100
AcDbLine
 10
30.482890
 20
61.404738
 30
0.0
 11
30.846665
 21
60.963839
 31
0.0
  0
LINE
  5
284
100
AcDbEntity
  8
Layer_1
 62
7
100
AcDbLine
 10
30.846665
 20
60.963839
 30
0.0
 11
31.121336
 21
60.457796
 31
0.0
  0
LINE
  5
285
100
AcDbEntity
  8
Layer_1
 62
7
100
AcDbLine
 10
31.121336
 20
60.457796
 30
0.0
 11
31.294923
 21
59.898589
 31
0.0
  0
LINE
  5
286
100
AcDbEntity
  8
Layer_1
 62
7
100
AcDbLine
 10
31.294923
 20
59.898589
 30
0.0
 11
31.355448
 21
59.298196
 31
0.0
  0
LINE
  5
287
100
AcDbEntity
  8
Layer_1
 62
7
100
AcDbLine
 10
31.355448
 20
59.298196
 30
0.0
 11
31.355448
 21
59.298196
 31
0.0
  0
LINE
  5
288
100
AcDbEntity
  8
Layer_1
 62
7
100
AcDbLine
 10
16.437885
 20
43.333300
 30
0.0
 11
16.380113
 21
42.749392
 31
0.0
  0
LINE
  5
289
100
AcDbEntity
  8
Layer_1
 62
7
100
AcDbLine
 10
16.380113
 20
42.749392
 30
0.0
 11
16.211114
 21
42.193247
 31
0.0
  0
LINE
  5
28a
100
AcDbEntity
  8
Layer_1
 62
7
100
AcDbLine
 10
16.211114
 20
42.193247
 30
0.0
 11
15.937361
 21
41.680493
 31
0.0
  0
LINE
  5
28b
100
AcDbEntity
  8
Layer_1
 62
7
100
AcDbLine
 10
15.937361
 20
41.680493
 30
0.0
 11
15.565327
 21
41.226757
 31
0.0
  0
LINE
  5
28c
100
AcDbEntity
  8
Layer_1
 62
7
100
AcDbLine
 10
15.565327
 20
41.226757
 30
0.0
 11
15.111591
 21
40.854723
 31
0.0
  0
LINE
  5
28d
100
AcDbEntity
  8
Layer_1
 62
7
100
AcDbLine
 10
15.111591
 20
40.854723
 30
0.0
 11
14.598837
 21
40.580969
 31
0.0
  0
LINE
  5
28e
100
AcDbEntity
  8
Layer_1
 62
7
100
AcDbLine
 10
14.598837
 20
40.580969
 30
0.0
 11
14.042692
 21
40.411970
 31
0.0
  0
LINE
  5
28f
100
AcDbEntity
  8
Layer_1
 62
7
100
AcDbLine
 10
14.042692
 20
40.411970
 30
0.0
 11
13.458784
 21
40.354199
 31
0.0
  0
LINE
  5
290
100
AcDbEntity
  8
Layer_1
 62
7
100
AcDbLine
 10
13.458784
 20
40.354199
 30
0.0
 11
12.874877
 21
40.411970
 31
0.0
  0
LINE
  5
291
100
AcDbEntity
  8
Layer_1
 62
7
100
AcDbLine
 10
12.874877
 20
40.411970
 30
0.0
 11
12.318732
 21
40.580969
 31
0.0
  0
LINE
  5
292
100
AcDbEntity
  8
Layer_1
 62
7
100
AcDbLine
 10
12.318732
 20
40.580969
 30
0.0
 11
11.805978
 21
40.854723
 31
0.0
  0
LINE
  5
293
100
AcDbEntity
  8
Layer_1
 62
7
100
AcDbLine
 10
11.805978
 20
40.854723
 30
0.0
 11
11.352242
 21
41.226757
 31
0.0
  0
LINE
  5
294
100
AcDbEntity
  8
Layer_1
 62
7
100
AcDbLine
 10
11.352242
 20
41.226757
 30
0.0
 11
10.980208
 21
41.680493
 31
0.0
  0
LINE
  5
295
100
AcDbEntity
  8
Layer_1
 62
7
100
AcDbLine
 10
10.980208
 20
41.680493
 30
0.0
 11
10.706454
 21
42.193247
 31
0.0
  0
LINE
  5
296
100
AcDbEntity
  8
Layer_1
 62
7
100
AcDbLine
 10
10.706454
 20
42.193247
 30
0.0
 11
10.537456
 21
42.749392
 31
0.0
  0
LINE
  5
297
100
AcDbEntity
  8
Layer_1
 62
7
100
AcDbLine
 10
10.537456
 20
42.749392
 30
0.0
 11
10.479684
 21
43.333300
 31
0.0
  0
LINE
  5
298
100
AcDbEntity
  8
Layer_1
 62
7
100
AcDbLine
 10
10.479684
 20
43.333300
 30
0.0
 11
10.537456
 21
43.917208
 31
0.0
  0
LINE
  5
299
100
AcDbEntity
  8
Layer_1
 62
7
100
AcDbLine
 10
10.537456
 20
43.917208
 30
0.0
 11
10.706454
 21
44.473352
 31
0.0
  0
LINE
  5
29a
100
AcDbEntity
  8
Layer_1
 62
7
100
AcDbLine
 10
10.706454
 20
44.473352
 30
0.0
 11
10.980208
 21
44.986107
 31
0.0
  0
LINE
  5
29b
100
AcDbEntity
  8
Layer_1
 62
7
100
AcDbLine
 10
10.980208
 20
44.986107
 30
0.0
 11
11.352242
 21
45.439842
 31
0.0
  0
LINE
  5
29c
100
AcDbEntity
  8
Layer_1
 62
7
100
AcDbLine
 10
11.352242
 20
45.439842
 30
0.0
 11
11.805978
 21
45.811877
 31
0.0
  0
LINE
  5
29d
100
AcDbEntity
  8
Layer_1
 62
7
100
AcDbLine
 10
11.805978
 20
45.811877
 30
0.0
 11
12.318732
 21
46.085630
 31
0.0
  0
LINE
  5
29e
100
AcDbEntity
  8
Layer_1
 62
7
100
AcDbLine
 10
12.318732
 20
46.085630
 30
0.0
 11
12.874877
 21
46.254629
 31
0.0
  0
LINE
  5
29f
100
AcDbEntity
  8
Layer_1
 62
7
100
AcDbLine
 10
12.874877
 20
46.254629
 30
0.0
 11
13.458784
 21
46.312401
 31
0.0
  0
LINE
  5
2a0
100
AcDbEntity
  8
Layer_1
 62
7
100
AcDbLine
 10
13.458784
 20
46.312401
 30
0.0
 11
14.042692
 21
46.254629
 31
0.0
  0
LINE
  5
2a1
100
AcDbEntity
  8
Layer_1
 62
7
100
AcDbLine
 10
14.042692
 20
46.254629
 30
0.0
 11
14.598837
 21
46.085630
 31
0.0
  0
LINE
  5
2a2
100
AcDbEntity
  8
Layer_1
 62
7
100
AcDbLine
 10
14.598837
 20
46.085630
 30
0.0
 11
15.111591
 21
45.811877
 31
0.0
  0
LINE
  5
2a3
100
AcDbEntity
  8
Layer_1
 62
7
100
AcDbLine
 10
15.111591
 20
45.811877
 30
0.0
 11
15.565327
 21
45.439842
 31
0.0
  0
LINE
  5
2a4
100
AcDbEntity
  8
Layer_1
 62
7
100
AcDbLine
 10
15.565327
 20
45.439842
 30
0.0
 11
15.937361
 21
44.986107
 31
0.0
  0
LINE
  5
2a5
100
AcDbEntity
  8
Layer_1
 62
7
100
AcDbLine
 10
15.937361
 20
44.986107
 30
0.0
 11
16.211114
 21
44.473352
 31
0.0
  0
LINE
  5
2a6
100
AcDbEntity
  8
Layer_1
 62
7
100
AcDbLine
 10
16.211114
 20
44.473352
 30
0.0
 11
16.380113
 21
43.917208
 31
0.0
  0
LINE
  5
2a7
100
AcDbEntity
  8
Layer_1
 62
7
100
AcDbLine
 10
16.380113
 20
43.917208
 30
0.0
 11
16.437885
 21
43.333300
 31
0.0
  0
LINE
  5
2a8
100
AcDbEntity
  8
Layer_1
 62
7
100
AcDbLine
 10
16.437885
 20
43.333300
 30
0.0
 11
16.437885
 21
43.333300
 31
0.0
  0
LINE
  5
2a9
100
AcDbEntity
  8
Layer_1
 62
7
100
AcDbLine
 10
31.355448
 20
43.333300
 30
0.0
 11
31.294923
 21
42.732907
 31
0.0
  0
LINE
  5
2aa
100
AcDbEntity
  8
Layer_1
 62
7
100
AcDbLine
 10
31.294923
 20
42.732907
 30
0.0
 11
31.121336
 21
42.173700
 31
0.0
  0
LINE
  5
2ab
100
AcDbEntity
  8
Layer_1
 62
7
100
AcDbLine
 10
31.121336
 20
42.173700
 30
0.0
 11
30.846665
 21
41.667657
 31
0.0
  0
LINE
  5
2ac
100
AcDbEntity
  8
Layer_1
 62
7
100
AcDbLine
 10
30.846665
 20
41.667657
 30
0.0
 11
30.482890
 21
41.226758
 31
0.0
  0
LINE
  5
2ad
100
AcDbEntity
  8
Layer_1
 62
7
100
AcDbLine
 10
30.482890
 20
41.226758
 30
0.0
 11
30.041992
 21
40.862983
 31
0.0
  0
LINE
  5
2ae
100
AcDbEntity
  8
Layer_1
 62
7
100
AcDbLine
 10
30.041992
 20
40.862983
 30
0.0
 11
29.535949
 21
40.588312
 31
0.0
  0
LINE
  5
2af
100
AcDbEntity
  8
Layer_1
 62
7
100
AcDbLine
 10
29.535949
 20
40.588312
 30
0.0
 11
28.976742
 21
40.414724
 31
0.0
  0
LINE
  5
2b0
100
AcDbEntity
  8
Layer_1
 62
7
100
AcDbLine
 10
28.976742
 20
40.414724
 30
0.0
 11
28.376349
 21
40.354199
 31
0.0
  0
LINE
  5
2b1
100
AcDbEntity
  8
Layer_1
 62
7
100
AcDbLine
 10
28.376349
 20
40.354199
 30
0.0
 11
27.792442
 21
40.411970
 31
0.0
  0
LINE
  5
2b2
100
AcDbEntity
  8
Layer_1
 62
7
100
AcDbLine
 10
27.792442
 20
40.411970
 30
0.0
 11
27.236297
 21
40.580969
 31
0.0
  0
LINE
  5
2b3
100
AcDbEntity
  8
Layer_1
 62
7
100
AcDbLine
 10
27.236297
 20
40.580969
 30
0.0
 11
26.723543
 21
40.854723
 31
0.0
  0
LINE
  5
2b4
100
AcDbEntity
  8
Layer_1
 62
7
100
AcDbLine
 10
26.723543
 20
40.854723
 30
0.0
 11
26.269807
 21
41.226757
 31
0.0
  0
LINE
  5
2b5
100
AcDbEntity
  8
Layer_1
 62
7
100
AcDbLine
 10
26.269807
 20
41.226757
 30
0.0
 11
25.897773
 21
41.680493
 31
0.0
  0
LINE
  5
2b6
100
AcDbEntity
  8
Layer_1
 62
7
100
AcDbLine
 10
25.897773
 20
41.680493
 30
0.0
 11
25.624020
 21
42.193247
 31
0.0
  0
LINE
  5
2b7
100
AcDbEntity
  8
Layer_1
 62
7
100
AcDbLine
 10
25.624020
 20
42.193247
 30
0.0
 11
25.455021
 21
42.749392
 31
0.0
  0
LINE
  5
2b8
100
AcDbEntity
  8
Layer_1
 62
7
100
AcDbLine
 10
25.455021
 20
42.749392
 30
0.0
 11
25.397249
 21
43.333300
 31
0.0
  0
LINE
  5
2b9
100
AcDbEntity
  8
Layer_1
 62
7
100
AcDbLine
 10
25.397249
 20
43.333300
 30
0.0
 11
25.455021
 21
43.917208
 31
0.0
  0
LINE
  5
2ba
100
AcDbEntity
  8
Layer_1
 62
7
100
AcDbLine
 10
25.455021
 20
43.917208
 30
0.0
 11
25.624020
 21
44.473352
 31
0.0
  0
LINE
  5
2bb
100
AcDbEntity
  8
Layer_1
 62
7
100
AcDbLine
 10
25.624020
 20
44.473352
 30
0.0
 11
25.897773
 21
44.986107
 31
0.0
  0
LINE
  5
2bc
100
AcDbEntity
  8
Layer_1
 62
7
100
AcDbLine
 10
25.897773
 20
44.986107
 30
0.0
 11
26.269807
 21
45.439842
 31
0.0
  0
LINE
  5
2bd
100
AcDbEntity
  8
Layer_1
 62
7
100
AcDbLine
 10
26.269807
 20
45.439842
 30
0.0
 11
26.723543
 21
45.811877
 31
0.0
  0
LINE
  5
2be
100
AcDbEntity
  8
Layer_1
 62
7
100
AcDbLine
 10
26.723543
 20
45.811877
 30
0.0
 11
27.236297
 21
46.085630
 31
0.0
  0
LINE
  5
2bf
100
AcDbEntity
  8
Layer_1
 62
7
100
AcDbLine
 10
27.236297
 20
46.085630
 30
0.0
 11
27.792442
 21
46.254629
 31
0.0
  0
LINE
  5
2c0
100
AcDbEntity
  8
Layer_1
 62
7
100
AcDbLine
 10
27.792442
 20
46.254629
 30
0.0
 11
28.376349
 21
46.312401
 31
0.0
  0
LINE
  5
2c1
100
AcDbEntity
  8
Layer_1
 62
7
100
AcDbLine
 10
28.376349
 20
46.312401
 30
0.0
 11
28.976742
 21
46.251876
 31
0.0
  0
LINE
  5
2c2
100
AcDbEntity
  8
Layer_1
 62
7
100
AcDbLine
 10
28.976742
 20
46.251876
 30
0.0
 11
29.535949
 21
46.078288
 31
0.0
  0
LINE
  5
2c3
100
AcDbEntity
  8
Layer_1
 62
7
100
AcDbLine
 10
29.535949
 20
46.078288
 30
0.0
 11
30.041992
 21
45.803616
 31
0.0
  0
LINE
  5
2c4
100
AcDbEntity
  8
Layer_1
 62
7
100
AcDbLine
 10
30.041992
 20
45.803616
 30
0.0
 11
30.482890
 21
45.439842
 31
0.0
  0
LINE
  5
2c5
100
AcDbEntity
  8
Layer_1
 62
7
100
AcDbLine
 10
30.482890
 20
45.439842
 30
0.0
 11
30.846665
 21
44.998943
 31
0.0
  0
LINE
  5
2c6
100
AcDbEntity
  8
Layer_1
 62
7
100
AcDbLine
 10
30.846665
 20
44.998943
 30
0.0
 11
31.121336
 21
44.492900
 31
0.0
  0
LINE
  5
2c7
100
AcDbEntity
  8
Layer_1
 62
7
100
AcDbLine
 10
31.121336
 20
44.492900
 30
0.0
 11
31.294923
 21
43.933692
 31
0.0
  0
LINE
  5
2c8
100
AcDbEntity
  8
Layer_1
 62
7
100
AcDbLine
 10
31.294923
 20
43.933692
 30
0.0
 11
31.355448
 21
43.333300
 31
0.0
  0
LINE
  5
2c9
100
AcDbEntity
  8
Layer_1
 62
7
100
AcDbLine
 10
31.355448
 20
43.333300
 30
0.0
 11
31.355448
 21
43.333300
 31
0.0
  0
LINE
  5
2ca
100
AcDbEntity
  8
Layer_1
 62
7
100
AcDbLine
 10
16.437885
 20
29.364011
 30
0.0
 11
16.380113
 21
28.780103
 31
0.0
  0
LINE
  5
2cb
100
AcDbEntity
  8
Layer_1
 62
7
100
AcDbLine
 10
16.380113
 20
28.780103
 30
0.0
 11
16.211114
 21
28.223958
 31
0.0
  0
LINE
  5
2cc
100
AcDbEntity
  8
Layer_1
 62
7
100
AcDbLine
 10
16.211114
 20
28.223958
 30
0.0
 11
15.937361
 21
27.711204
 31
0.0
  0
LINE
  5
2cd
100
AcDbEntity
  8
Layer_1
 62
7
100
AcDbLine
 10
15.937361
 20
27.711204
 30
0.0
 11
15.565327
 21
27.257468
 31
0.0
  0
LINE
  5
2ce
100
AcDbEntity
  8
Layer_1
 62
7
100
AcDbLine
 10
15.565327
 20
27.257468
 30
0.0
 11
15.111591
 21
26.885434
 31
0.0
  0
LINE
  5
2cf
100
AcDbEntity
  8
Layer_1
 62
7
100
AcDbLine
 10
15.111591
 20
26.885434
 30
0.0
 11
14.598837
 21
26.611680
 31
0.0
  0
LINE
  5
2d0
100
AcDbEntity
  8
Layer_1
 62
7
100
AcDbLine
 10
14.598837
 20
26.611680
 30
0.0
 11
14.042692
 21
26.442681
 31
0.0
  0
LINE
  5
2d1
100
AcDbEntity
  8
Layer_1
 62
7
100
AcDbLine
 10
14.042692
 20
26.442681
 30
0.0
 11
13.458784
 21
26.384910
 31
0.0
  0
LINE
  5
2d2
100
AcDbEntity
  8
Layer_1
 62
7
100
AcDbLine
 10
13.458784
 20
26.384910
 30
0.0
 11
12.874877
 21
26.442681
 31
0.0
  0
LINE
  5
2d3
100
AcDbEntity
  8
Layer_1
 62
7
100
AcDbLine
 10
12.874877
 20
26.442681
 30
0.0
 11
12.318732
 21
26.611680
 31
0.0
  0
LINE
  5
2d4
100
AcDbEntity
  8
Layer_1
 62
7
100
AcDbLine
 10
12.318732
 20
26.611680
 30
0.0
 11
11.805978
 21
26.885434
 31
0.0
  0
LINE
  5
2d5
100
AcDbEntity
  8
Layer_1
 62
7
100
AcDbLine
 10
11.805978
 20
26.885434
 30
0.0
 11
11.352242
 21
27.257468
 31
0.0
  0
LINE
  5
2d6
100
AcDbEntity
  8
Layer_1
 62
7
100
AcDbLine
 10
11.352242
 20
27.257468
 30
0.0
 11
10.980208
 21
27.711204
 31
0.0
  0
LINE
  5
2d7
100
AcDbEntity
  8
Layer_1
 62
7
100
AcDbLine
 10
10.980208
 20
27.711204
 30
0.0
 11
10.706454
 21
28.223958
 31
0.0
  0
LINE
  5
2d8
100
AcDbEntity
  8
Layer_1
 62
7
100
AcDbLine
 10
10.706454
 20
28.223958
 30
0.0
 11
10.537456
 21
28.780103
 31
0.0
  0
LINE
  5
2d9
100
AcDbEntity
  8
Layer_1
 62
7
100
AcDbLine
 10
10.537456
 20
28.780103
 30
0.0
 11
10.479684
 21
29.364011
 31
0.0
  0
LINE
  5
2da
100
AcDbEntity
  8
Layer_1
 62
7
100
AcDbLine
 10
10.479684
 20
29.364011
 30
0.0
 11
10.537456
 21
29.947919
 31
0.0
  0
LINE
  5
2db
100
AcDbEntity
  8
Layer_1
 62
7
100
AcDbLine
 10
10.537456
 20
29.947919
 30
0.0
 11
10.706454
 21
30.504064
 31
0.0
  0
LINE
  5
2dc
100
AcDbEntity
  8
Layer_1
 62
7
100
AcDbLine
 10
10.706454
 20
30.504064
 30
0.0
 11
10.980208
 21
31.016818
 31
0.0
  0
LINE
  5
2dd
100
AcDbEntity
  8
Layer_1
 62
7
100
AcDbLine
 10
10.980208
 20
31.016818
 30
0.0
 11
11.352242
 21
31.470554
 31
0.0
  0
LINE
  5
2de
100
AcDbEntity
  8
Layer_1
 62
7
100
AcDbLine
 10
11.352242
 20
31.470554
 30
0.0
 11
11.805978
 21
31.842588
 31
0.0
  0
LINE
  5
2df
100
AcDbEntity
  8
Layer_1
 62
7
100
AcDbLine
 10
11.805978
 20
31.842588
 30
0.0
 11
12.318732
 21
32.116341
 31
0.0
  0
LINE
  5
2e0
100
AcDbEntity
  8
Layer_1
 62
7
100
AcDbLine
 10
12.318732
 20
32.116341
 30
0.0
 11
12.874877
 21
32.285341
 31
0.0
  0
LINE
  5
2e1
100
AcDbEntity
  8
Layer_1
 62
7
100
AcDbLine
 10
12.874877
 20
32.285341
 30
0.0
 11
13.458784
 21
32.343112
 31
0.0
  0
LINE
  5
2e2
100
AcDbEntity
  8
Layer_1
 62
7
100
AcDbLine
 10
13.458784
 20
32.343112
 30
0.0
 11
14.042692
 21
32.285341
 31
0.0
  0
LINE
  5
2e3
100
AcDbEntity
  8
Layer_1
 62
7
100
AcDbLine
 10
14.042692
 20
32.285341
 30
0.0
 11
14.598837
 21
32.116341
 31
0.0
  0
LINE
  5
2e4
100
AcDbEntity
  8
Layer_1
 62
7
100
AcDbLine
 10
14.598837
 20
32.116341
 30
0.0
 11
15.111591
 21
31.842588
 31
0.0
  0
LINE
  5
2e5
100
AcDbEntity
  8
Layer_1
 62
7
100
AcDbLine
 10
15.111591
 20
31.842588
 30
0.0
 11
15.565327
 21
31.470554
 31
0.0
  0
LINE
  5
2e6
100
AcDbEntity
  8
Layer_1
 62
7
100
AcDbLine
 10
15.565327
 20
31.470554
 30
0.0
 11
15.937361
 21
31.016818
 31
0.0
  0
LINE
  5
2e7
100
AcDbEntity
  8
Layer_1
 62
7
100
AcDbLine
 10
15.937361
 20
31.016818
 30
0.0
 11
16.211114
 21
30.504064
 31
0.0
  0
LINE
  5
2e8
100
AcDbEntity
  8
Layer_1
 62
7
100
AcDbLine
 10
16.211114
 20
30.504064
 30
0.0
 11
16.380113
 21
29.947919
 31
0.0
  0
LINE
  5
2e9
100
AcDbEntity
  8
Layer_1
 62
7
100
AcDbLine
 10
16.380113
 20
29.947919
 30
0.0
 11
16.437885
 21
29.364011
 31
0.0
  0
LINE
  5
2ea
100
AcDbEntity
  8
Layer_1
 62
7
100
AcDbLine
 10
16.437885
 20
29.364011
 30
0.0
 11
16.437885
 21
29.364011
 31
0.0
  0
LINE
  5
2eb
100
AcDbEntity
  8
Layer_1
 62
7
100
AcDbLine
 10
31.355448
 20
29.364011
 30
0.0
 11
31.294923
 21
28.763618
 31
0.0
  0
LINE
  5
2ec
100
AcDbEntity
  8
Layer_1
 62
7
100
AcDbLine
 10
31.294923
 20
28.763618
 30
0.0
 11
31.121336
 21
28.204411
 31
0.0
  0
LINE
  5
2ed
100
AcDbEntity
  8
Layer_1
 62
7
100
AcDbLine
 10
31.121336
 20
28.204411
 30
0.0
 11
30.846665
 21
27.698368
 31
0.0
  0
LINE
  5
2ee
100
AcDbEntity
  8
Layer_1
 62
7
100
AcDbLine
 10
30.846665
 20
27.698368
 30
0.0
 11
30.482890
 21
27.257469
 31
0.0
  0
LINE
  5
2ef
100
AcDbEntity
  8
Layer_1
 62
7
100
AcDbLine
 10
30.482890
 20
27.257469
 30
0.0
 11
30.041992
 21
26.893694
 31
0.0
  0
LINE
  5
2f0
100
AcDbEntity
  8
Layer_1
 62
7
100
AcDbLine
 10
30.041992
 20
26.893694
 30
0.0
 11
29.535949
 21
26.619023
 31
0.0
  0
LINE
  5
2f1
100
AcDbEntity
  8
Layer_1
 62
7
100
AcDbLine
 10
29.535949
 20
26.619023
 30
0.0
 11
28.976742
 21
26.445435
 31
0.0
  0
LINE
  5
2f2
100
AcDbEntity
  8
Layer_1
 62
7
100
AcDbLine
 10
28.976742
 20
26.445435
 30
0.0
 11
28.376349
 21
26.384910
 31
0.0
  0
LINE
  5
2f3
100
AcDbEntity
  8
Layer_1
 62
7
100
AcDbLine
 10
28.376349
 20
26.384910
 30
0.0
 11
27.792442
 21
26.442681
 31
0.0
  0
LINE
  5
2f4
100
AcDbEntity
  8
Layer_1
 62
7
100
AcDbLine
 10
27.792442
 20
26.442681
 30
0.0
 11
27.236297
 21
26.611680
 31
0.0
  0
LINE
  5
2f5
100
AcDbEntity
  8
Layer_1
 62
7
100
AcDbLine
 10
27.236297
 20
26.611680
 30
0.0
 11
26.723543
 21
26.885434
 31
0.0
  0
LINE
  5
2f6
100
AcDbEntity
  8
Layer_1
 62
7
100
AcDbLine
 10
26.723543
 20
26.885434
 30
0.0
 11
26.269807
 21
27.257468
 31
0.0
  0
LINE
  5
2f7
100
AcDbEntity
  8
Layer_1
 62
7
100
AcDbLine
 10
26.269807
 20
27.257468
 30
0.0
 11
25.897773
 21
27.711204
 31
0.0
  0
LINE
  5
2f8
100
AcDbEntity
  8
Layer_1
 62
7
100
AcDbLine
 10
25.897773
 20
27.711204
 30
0.0
 11
25.624020
 21
28.223958
 31
0.0
  0
LINE
  5
2f9
100
AcDbEntity
  8
Layer_1
 62
7
100
AcDbLine
 10
25.624020
 20
28.223958
 30
0.0
 11
25.455021
 21
28.780103
 31
0.0
  0
LINE
  5
2fa
100
AcDbEntity
  8
Layer_1
 62
7
100
AcDbLine
 10
25.455021
 20
28.780103
 30
0.0
 11
25.397249
 21
29.364011
 31
0.0
  0
LINE
  5
2fb
100
AcDbEntity
  8
Layer_1
 62
7
100
AcDbLine
 10
25.397249
 20
29.364011
 30
0.0
 11
25.455021
 21
29.947919
 31
0.0
  0
LINE
  5
2fc
100
AcDbEntity
  8
Layer_1
 62
7
100
AcDbLine
 10
25.455021
 20
29.947919
 30
0.0
 11
25.624020
 21
30.504064
 31
0.0
  0
LINE
  5
2fd
100
AcDbEntity
  8
Layer_1
 62
7
100
AcDbLine
 10
25.624020
 20
30.504064
 30
0.0
 11
25.897773
 21
31.016818
 31
0.0
  0
LINE
  5
2fe
100
AcDbEntity
  8
Layer_1
 62
7
100
AcDbLine
 10
25.897773
 20
31.016818
 30
0.0
 11
26.269807
 21
31.470554
 31
0.0
  0
LINE
  5
2ff
100
AcDbEntity
  8
Layer_1
 62
7
100
AcDbLine
 10
26.269807
 20
31.470554
 30
0.0
 11
26.723543
 21
31.842588
 31
0.0
  0
LINE
  5
300
100
AcDbEntity
  8
Layer_1
 62
7
100
AcDbLine
 10
26.723543
 20
31.842588
 30
0.0
 11
27.236297
 21
32.116341
 31
0.0
  0
LINE
  5
301
100
AcDbEntity
  8
Layer_1
 62
7
100
AcDbLine
 10
27.236297
 20
32.116341
 30
0.0
 11
27.792442
 21
32.285341
 31
0.0
  0
LINE
  5
302
100
AcDbEntity
  8
Layer_1
 62
7
100
AcDbLine
 10
27.792442
 20
32.285341
 30
0.0
 11
28.376349
 21
32.343112
 31
0.0
  0
LINE
  5
303
100
AcDbEntity
  8
Layer_1
 62
7
100
AcDbLine
 10
28.376349
 20
32.343112
 30
0.0
 11
28.976742
 21
32.282587
 31
0.0
  0
LINE
  5
304
100
AcDbEntity
  8
Layer_1
 62
7
100
AcDbLine
 10
28.976742
 20
32.282587
 30
0.0
 11
29.535949
 21
32.108999
 31
0.0
  0
LINE
  5
305
100
AcDbEntity
  8
Layer_1
 62
7
100
AcDbLine
 10
29.535949
 20
32.108999
 30
0.0
 11
30.041992
 21
31.834328
 31
0.0
  0
LINE
  5
306
100
AcDbEntity
  8
Layer_1
 62
7
100
AcDbLine
 10
30.041992
 20
31.834328
 30
0.0
 11
30.482890
 21
31.470553
 31
0.0
  0
LINE
  5
307
100
AcDbEntity
  8
Layer_1
 62
7
100
AcDbLine
 10
30.482890
 20
31.470553
 30
0.0
 11
30.846665
 21
31.029654
 31
0.0
  0
LINE
  5
308
100
AcDbEntity
  8
Layer_1
 62
7
100
AcDbLine
 10
30.846665
 20
31.029654
 30
0.0
 11
31.121336
 21
30.523611
 31
0.0
  0
LINE
  5
309
100
AcDbEntity
  8
Layer_1
 62
7
100
AcDbLine
 10
31.121336
 20
30.523611
 30
0.0
 11
31.294923
 21
29.964403
 31
0.0
  0
LINE
  5
30a
100
AcDbEntity
  8
Layer_1
 62
7
100
AcDbLine
 10
31.294923
 20
29.964403
 30
0.0
 11
31.355448
 21
29.364011
 31
0.0
  0
LINE
  5
30b
100
AcDbEntity
  8
Layer_1
 62
7
100
AcDbLine
 10
31.355448
 20
29.364011
 30
0.0
 11
31.355448
 21
29.364011
 31
0.0
  0
LINE
  5
30c
100
AcDbEntity
  8
Layer_1
 62
7
100
AcDbLine
 10
212.369662
 20
66.236361
 30
0.0
 11
212.311891
 21
65.652453
 31
0.0
  0
LINE
  5
30d
100
AcDbEntity
  8
Layer_1
 62
7
100
AcDbLine
 10
212.311891
 20
65.652453
 30
0.0
 11
212.142892
 21
65.096308
 31
0.0
  0
LINE
  5
30e
100
AcDbEntity
  8
Layer_1
 62
7
100
AcDbLine
 10
212.142892
 20
65.096308
 30
0.0
 11
211.869139
 21
64.583554
 31
0.0
  0
LINE
  5
30f
100
AcDbEntity
  8
Layer_1
 62
7
100
AcDbLine
 10
211.869139
 20
64.583554
 30
0.0
 11
211.497104
 21
64.129818
 31
0.0
  0
LINE
  5
310
100
AcDbEntity
  8
Layer_1
 62
7
100
AcDbLine
 10
211.497104
 20
64.129818
 30
0.0
 11
211.043368
 21
63.757784
 31
0.0
  0
LINE
  5
311
100
AcDbEntity
  8
Layer_1
 62
7
100
AcDbLine
 10
211.043368
 20
63.757784
 30
0.0
 11
210.530614
 21
63.484030
 31
0.0
  0
LINE
  5
312
100
AcDbEntity
  8
Layer_1
 62
7
100
AcDbLine
 10
210.530614
 20
63.484030
 30
0.0
 11
209.974469
 21
63.315032
 31
0.0
  0
LINE
  5
313
100
AcDbEntity
  8
Layer_1
 62
7
100
AcDbLine
 10
209.974469
 20
63.315032
 30
0.0
 11
209.390561
 21
63.257260
 31
0.0
  0
LINE
  5
314
100
AcDbEntity
  8
Layer_1
 62
7
100
AcDbLine
 10
209.390561
 20
63.257260
 30
0.0
 11
208.806654
 21
63.315032
 31
0.0
  0
LINE
  5
315
100
AcDbEntity
  8
Layer_1
 62
7
100
AcDbLine
 10
208.806654
 20
63.315032
 30
0.0
 11
208.250509
 21
63.484030
 31
0.0
  0
LINE
  5
316
100
AcDbEntity
  8
Layer_1
 62
7
100
AcDbLine
 10
208.250509
 20
63.484030
 30
0.0
 11
207.737754
 21
63.757784
 31
0.0
  0
LINE
  5
317
100
AcDbEntity
  8
Layer_1
 62
7
100
AcDbLine
 10
207.737754
 20
63.757784
 30
0.0
 11
207.284019
 21
64.129818
 31
0.0
  0
LINE
  5
318
100
AcDbEntity
  8
Layer_1
 62
7
100
AcDbLine
 10
207.284019
 20
64.129818
 30
0.0
 11
206.911984
 21
64.583554
 31
0.0
  0
LINE
  5
319
100
AcDbEntity
  8
Layer_1
 62
7
100
AcDbLine
 10
206.911984
 20
64.583554
 30
0.0
 11
206.638231
 21
65.096308
 31
0.0
  0
LINE
  5
31a
100
AcDbEntity
  8
Layer_1
 62
7
100
AcDbLine
 10
206.638231
 20
65.096308
 30
0.0
 11
206.469232
 21
65.652453
 31
0.0
  0
LINE
  5
31b
100
AcDbEntity
  8
Layer_1
 62
7
100
AcDbLine
 10
206.469232
 20
65.652453
 30
0.0
 11
206.411460
 21
66.236361
 31
0.0
  0
LINE
  5
31c
100
AcDbEntity
  8
Layer_1
 62
7
100
AcDbLine
 10
206.411460
 20
66.236361
 30
0.0
 11
206.469232
 21
66.820269
 31
0.0
  0
LINE
  5
31d
100
AcDbEntity
  8
Layer_1
 62
7
100
AcDbLine
 10
206.469232
 20
66.820269
 30
0.0
 11
206.638231
 21
67.376414
 31
0.0
  0
LINE
  5
31e
100
AcDbEntity
  8
Layer_1
 62
7
100
AcDbLine
 10
206.638231
 20
67.376414
 30
0.0
 11
206.911984
 21
67.889168
 31
0.0
  0
LINE
  5
31f
100
AcDbEntity
  8
Layer_1
 62
7
100
AcDbLine
 10
206.911984
 20
67.889168
 30
0.0
 11
207.284019
 21
68.342904
 31
0.0
  0
LINE
  5
320
100
AcDbEntity
  8
Layer_1
 62
7
100
AcDbLine
 10
207.284019
 20
68.342904
 30
0.0
 11
207.737754
 21
68.714939
 31
0.0
  0
LINE
  5
321
100
AcDbEntity
  8
Layer_1
 62
7
100
AcDbLine
 10
207.737754
 20
68.714939
 30
0.0
 11
208.250509
 21
68.988692
 31
0.0
  0
LINE
  5
322
100
AcDbEntity
  8
Layer_1
 62
7
100
AcDbLine
 10
208.250509
 20
68.988692
 30
0.0
 11
208.806654
 21
69.157691
 31
0.0
  0
LINE
  5
323
100
AcDbEntity
  8
Layer_1
 62
7
100
AcDbLine
 10
208.806654
 20
69.157691
 30
0.0
 11
209.390561
 21
69.215462
 31
0.0
  0
LINE
  5
324
100
AcDbEntity
  8
Layer_1
 62
7
100
AcDbLine
 10
209.390561
 20
69.215462
 30
0.0
 11
209.974469
 21
69.157691
 31
0.0
  0
LINE
  5
325
100
AcDbEntity
  8
Layer_1
 62
7
100
AcDbLine
 10
209.974469
 20
69.157691
 30
0.0
 11
210.530614
 21
68.988692
 31
0.0
  0
LINE
  5
326
100
AcDbEntity
  8
Layer_1
 62
7
100
AcDbLine
 10
210.530614
 20
68.988692
 30
0.0
 11
211.043368
 21
68.714939
 31
0.0
  0
LINE
  5
327
100
AcDbEntity
  8
Layer_1
 62
7
100
AcDbLine
 10
211.043368
 20
68.714939
 30
0.0
 11
211.497104
 21
68.342904
 31
0.0
  0
LINE
  5
328
100
AcDbEntity
  8
Layer_1
 62
7
100
AcDbLine
 10
211.497104
 20
68.342904
 30
0.0
 11
211.869139
 21
67.889168
 31
0.0
  0
LINE
  5
329
100
AcDbEntity
  8
Layer_1
 62
7
100
AcDbLine
 10
211.869139
 20
67.889168
 30
0.0
 11
212.142892
 21
67.376414
 31
0.0
  0
LINE
  5
32a
100
AcDbEntity
  8
Layer_1
 62
7
100
AcDbLine
 10
212.142892
 20
67.376414
 30
0.0
 11
212.311891
 21
66.820269
 31
0.0
  0
LINE
  5
32b
100
AcDbEntity
  8
Layer_1
 62
7
100
AcDbLine
 10
212.311891
 20
66.820269
 30
0.0
 11
212.369662
 21
66.236361
 31
0.0
  0
LINE
  5
32c
100
AcDbEntity
  8
Layer_1
 62
7
100
AcDbLine
 10
212.369662
 20
66.236361
 30
0.0
 11
212.369662
 21
66.236361
 31
0.0
  0
LINE
  5
32d
100
AcDbEntity
  8
Layer_1
 62
7
100
AcDbLine
 10
227.287235
 20
66.236361
 30
0.0
 11
227.229463
 21
65.652453
 31
0.0
  0
LINE
  5
32e
100
AcDbEntity
  8
Layer_1
 62
7
100
AcDbLine
 10
227.229463
 20
65.652453
 30
0.0
 11
227.060464
 21
65.096308
 31
0.0
  0
LINE
  5
32f
100
AcDbEntity
  8
Layer_1
 62
7
100
AcDbLine
 10
227.060464
 20
65.096308
 30
0.0
 11
226.786711
 21
64.583554
 31
0.0
  0
LINE
  5
330
100
AcDbEntity
  8
Layer_1
 62
7
100
AcDbLine
 10
226.786711
 20
64.583554
 30
0.0
 11
226.414677
 21
64.129818
 31
0.0
  0
LINE
  5
331
100
AcDbEntity
  8
Layer_1
 62
7
100
AcDbLine
 10
226.414677
 20
64.129818
 30
0.0
 11
225.960941
 21
63.757784
 31
0.0
  0
LINE
  5
332
100
AcDbEntity
  8
Layer_1
 62
7
100
AcDbLine
 10
225.960941
 20
63.757784
 30
0.0
 11
225.448186
 21
63.484030
 31
0.0
  0
LINE
  5
333
100
AcDbEntity
  8
Layer_1
 62
7
100
AcDbLine
 10
225.448186
 20
63.484030
 30
0.0
 11
224.892042
 21
63.315032
 31
0.0
  0
LINE
  5
334
100
AcDbEntity
  8
Layer_1
 62
7
100
AcDbLine
 10
224.892042
 20
63.315032
 30
0.0
 11
224.308134
 21
63.257260
 31
0.0
  0
LINE
  5
335
100
AcDbEntity
  8
Layer_1
 62
7
100
AcDbLine
 10
224.308134
 20
63.257260
 30
0.0
 11
223.707741
 21
63.317785
 31
0.0
  0
LINE
  5
336
100
AcDbEntity
  8
Layer_1
 62
7
100
AcDbLine
 10
223.707741
 20
63.317785
 30
0.0
 11
223.148534
 21
63.491373
 31
0.0
  0
LINE
  5
337
100
AcDbEntity
  8
Layer_1
 62
7
100
AcDbLine
 10
223.148534
 20
63.491373
 30
0.0
 11
222.642491
 21
63.766045
 31
0.0
  0
LINE
  5
338
100
AcDbEntity
  8
Layer_1
 62
7
100
AcDbLine
 10
222.642491
 20
63.766045
 30
0.0
 11
222.201593
 21
64.129819
 31
0.0
  0
LINE
  5
339
100
AcDbEntity
  8
Layer_1
 62
7
100
AcDbLine
 10
222.201593
 20
64.129819
 30
0.0
 11
221.837818
 21
64.570718
 31
0.0
  0
LINE
  5
33a
100
AcDbEntity
  8
Layer_1
 62
7
100
AcDbLine
 10
221.837818
 20
64.570718
 30
0.0
 11
221.563148
 21
65.076761
 31
0.0
  0
LINE
  5
33b
100
AcDbEntity
  8
Layer_1
 62
7
100
AcDbLine
 10
221.563148
 20
65.076761
 30
0.0
 11
221.389560
 21
65.635969
 31
0.0
  0
LINE
  5
33c
100
AcDbEntity
  8
Layer_1
 62
7
100
AcDbLine
 10
221.389560
 20
65.635969
 30
0.0
 11
221.329036
 21
66.236361
 31
0.0
  0
LINE
  5
33d
100
AcDbEntity
  8
Layer_1
 62
7
100
AcDbLine
 10
221.329036
 20
66.236361
 30
0.0
 11
221.389560
 21
66.836754
 31
0.0
  0
LINE
  5
33e
100
AcDbEntity
  8
Layer_1
 62
7
100
AcDbLine
 10
221.389560
 20
66.836754
 30
0.0
 11
221.563148
 21
67.395961
 31
0.0
  0
LINE
  5
33f
100
AcDbEntity
  8
Layer_1
 62
7
100
AcDbLine
 10
221.563148
 20
67.395961
 30
0.0
 11
221.837818
 21
67.902004
 31
0.0
  0
LINE
  5
340
100
AcDbEntity
  8
Layer_1
 62
7
100
AcDbLine
 10
221.837818
 20
67.902004
 30
0.0
 11
222.201593
 21
68.342903
 31
0.0
  0
LINE
  5
341
100
AcDbEntity
  8
Layer_1
 62
7
100
AcDbLine
 10
222.201593
 20
68.342903
 30
0.0
 11
222.642491
 21
68.706678
 31
0.0
  0
LINE
  5
342
100
AcDbEntity
  8
Layer_1
 62
7
100
AcDbLine
 10
222.642491
 20
68.706678
 30
0.0
 11
223.148534
 21
68.981349
 31
0.0
  0
LINE
  5
343
100
AcDbEntity
  8
Layer_1
 62
7
100
AcDbLine
 10
223.148534
 20
68.981349
 30
0.0
 11
223.707741
 21
69.154937
 31
0.0
  0
LINE
  5
344
100
AcDbEntity
  8
Layer_1
 62
7
100
AcDbLine
 10
223.707741
 20
69.154937
 30
0.0
 11
224.308134
 21
69.215462
 31
0.0
  0
LINE
  5
345
100
AcDbEntity
  8
Layer_1
 62
7
100
AcDbLine
 10
224.308134
 20
69.215462
 30
0.0
 11
224.892042
 21
69.157691
 31
0.0
  0
LINE
  5
346
100
AcDbEntity
  8
Layer_1
 62
7
100
AcDbLine
 10
224.892042
 20
69.157691
 30
0.0
 11
225.448186
 21
68.988692
 31
0.0
  0
LINE
  5
347
100
AcDbEntity
  8
Layer_1
 62
7
100
AcDbLine
 10
225.448186
 20
68.988692
 30
0.0
 11
225.960941
 21
68.714939
 31
0.0
  0
LINE
  5
348
100
AcDbEntity
  8
Layer_1
 62
7
100
AcDbLine
 10
225.960941
 20
68.714939
 30
0.0
 11
226.414677
 21
68.342904
 31
0.0
  0
LINE
  5
349
100
AcDbEntity
  8
Layer_1
 62
7
100
AcDbLine
 10
226.414677
 20
68.342904
 30
0.0
 11
226.786711
 21
67.889168
 31
0.0
  0
LINE
  5
34a
100
AcDbEntity
  8
Layer_1
 62
7
100
AcDbLine
 10
226.786711
 20
67.889168
 30
0.0
 11
227.060464
 21
67.376414
 31
0.0
  0
LINE
  5
34b
100
AcDbEntity
  8
Layer_1
 62
7
100
AcDbLine
 10
227.060464
 20
67.376414
 30
0.0
 11
227.229463
 21
66.820269
 31
0.0
  0
LINE
  5
34c
100
AcDbEntity
  8
Layer_1
 62
7
100
AcDbLine
 10
227.229463
 20
66.820269
 30
0.0
 11
227.287235
 21
66.236361
 31
0.0
  0
LINE
  5
34d
100
AcDbEntity
  8
Layer_1
 62
7
100
AcDbLine
 10
227.287235
 20
66.236361
 30
0.0
 11
227.287235
 21
66.236361
 31
0.0
  0
LINE
  5
34e
100
AcDbEntity
  8
Layer_1
 62
7
100
AcDbLine
 10
212.369662
 20
51.347759
 30
0.0
 11
212.309137
 21
50.747367
 31
0.0
  0
LINE
  5
34f
100
AcDbEntity
  8
Layer_1
 62
7
100
AcDbLine
 10
212.309137
 20
50.747367
 30
0.0
 11
212.135549
 21
50.188159
 31
0.0
  0
LINE
  5
350
100
AcDbEntity
  8
Layer_1
 62
7
100
AcDbLine
 10
212.135549
 20
50.188159
 30
0.0
 11
211.860878
 21
49.682116
 31
0.0
  0
LINE
  5
351
100
AcDbEntity
  8
Layer_1
 62
7
100
AcDbLine
 10
211.860878
 20
49.682116
 30
0.0
 11
211.497103
 21
49.241218
 31
0.0
  0
LINE
  5
352
100
AcDbEntity
  8
Layer_1
 62
7
100
AcDbLine
 10
211.497103
 20
49.241218
 30
0.0
 11
211.056204
 21
48.877443
 31
0.0
  0
LINE
  5
353
100
AcDbEntity
  8
Layer_1
 62
7
100
AcDbLine
 10
211.056204
 20
48.877443
 30
0.0
 11
210.550161
 21
48.602773
 31
0.0
  0
LINE
  5
354
100
AcDbEntity
  8
Layer_1
 62
7
100
AcDbLine
 10
210.550161
 20
48.602773
 30
0.0
 11
209.990954
 21
48.429185
 31
0.0
  0
LINE
  5
355
100
AcDbEntity
  8
Layer_1
 62
7
100
AcDbLine
 10
209.990954
 20
48.429185
 30
0.0
 11
209.390561
 21
48.368661
 31
0.0
  0
LINE
  5
356
100
AcDbEntity
  8
Layer_1
 62
7
100
AcDbLine
 10
209.390561
 20
48.368661
 30
0.0
 11
208.790169
 21
48.429185
 31
0.0
  0
LINE
  5
357
100
AcDbEntity
  8
Layer_1
 62
7
100
AcDbLine
 10
208.790169
 20
48.429185
 30
0.0
 11
208.230961
 21
48.602773
 31
0.0
  0
LINE
  5
358
100
AcDbEntity
  8
Layer_1
 62
7
100
AcDbLine
 10
208.230961
 20
48.602773
 30
0.0
 11
207.724918
 21
48.877443
 31
0.0
  0
LINE
  5
359
100
AcDbEntity
  8
Layer_1
 62
7
100
AcDbLine
 10
207.724918
 20
48.877443
 30
0.0
 11
207.284020
 21
49.241218
 31
0.0
  0
LINE
  5
35a
100
AcDbEntity
  8
Layer_1
 62
7
100
AcDbLine
 10
207.284020
 20
49.241218
 30
0.0
 11
206.920245
 21
49.682116
 31
0.0
  0
LINE
  5
35b
100
AcDbEntity
  8
Layer_1
 62
7
100
AcDbLine
 10
206.920245
 20
49.682116
 30
0.0
 11
206.645573
 21
50.188159
 31
0.0
  0
LINE
  5
35c
100
AcDbEntity
  8
Layer_1
 62
7
100
AcDbLine
 10
206.645573
 20
50.188159
 30
0.0
 11
206.471985
 21
50.747367
 31
0.0
  0
LINE
  5
35d
100
AcDbEntity
  8
Layer_1
 62
7
100
AcDbLine
 10
206.471985
 20
50.747367
 30
0.0
 11
206.411460
 21
51.347759
 31
0.0
  0
LINE
  5
35e
100
AcDbEntity
  8
Layer_1
 62
7
100
AcDbLine
 10
206.411460
 20
51.347759
 30
0.0
 11
206.469232
 21
51.931667
 31
0.0
  0
LINE
  5
35f
100
AcDbEntity
  8
Layer_1
 62
7
100
AcDbLine
 10
206.469232
 20
51.931667
 30
0.0
 11
206.638231
 21
52.487812
 31
0.0
  0
LINE
  5
360
100
AcDbEntity
  8
Layer_1
 62
7
100
AcDbLine
 10
206.638231
 20
52.487812
 30
0.0
 11
206.911984
 21
53.000566
 31
0.0
  0
LINE
  5
361
100
AcDbEntity
  8
Layer_1
 62
7
100
AcDbLine
 10
206.911984
 20
53.000566
 30
0.0
 11
207.284019
 21
53.454302
 31
0.0
  0
LINE
  5
362
100
AcDbEntity
  8
Layer_1
 62
7
100
AcDbLine
 10
207.284019
 20
53.454302
 30
0.0
 11
207.737754
 21
53.826336
 31
0.0
  0
LINE
  5
363
100
AcDbEntity
  8
Layer_1
 62
7
100
AcDbLine
 10
207.737754
 20
53.826336
 30
0.0
 11
208.250509
 21
54.100090
 31
0.0
  0
LINE
  5
364
100
AcDbEntity
  8
Layer_1
 62
7
100
AcDbLine
 10
208.250509
 20
54.100090
 30
0.0
 11
208.806654
 21
54.269089
 31
0.0
  0
LINE
  5
365
100
AcDbEntity
  8
Layer_1
 62
7
100
AcDbLine
 10
208.806654
 20
54.269089
 30
0.0
 11
209.390561
 21
54.326860
 31
0.0
  0
LINE
  5
366
100
AcDbEntity
  8
Layer_1
 62
7
100
AcDbLine
 10
209.390561
 20
54.326860
 30
0.0
 11
209.974469
 21
54.269089
 31
0.0
  0
LINE
  5
367
100
AcDbEntity
  8
Layer_1
 62
7
100
AcDbLine
 10
209.974469
 20
54.269089
 30
0.0
 11
210.530614
 21
54.100090
 31
0.0
  0
LINE
  5
368
100
AcDbEntity
  8
Layer_1
 62
7
100
AcDbLine
 10
210.530614
 20
54.100090
 30
0.0
 11
211.043368
 21
53.826336
 31
0.0
  0
LINE
  5
369
100
AcDbEntity
  8
Layer_1
 62
7
100
AcDbLine
 10
211.043368
 20
53.826336
 30
0.0
 11
211.497104
 21
53.454302
 31
0.0
  0
LINE
  5
36a
100
AcDbEntity
  8
Layer_1
 62
7
100
AcDbLine
 10
211.497104
 20
53.454302
 30
0.0
 11
211.869139
 21
53.000566
 31
0.0
  0
LINE
  5
36b
100
AcDbEntity
  8
Layer_1
 62
7
100
AcDbLine
 10
211.869139
 20
53.000566
 30
0.0
 11
212.142892
 21
52.487812
 31
0.0
  0
LINE
  5
36c
100
AcDbEntity
  8
Layer_1
 62
7
100
AcDbLine
 10
212.142892
 20
52.487812
 30
0.0
 11
212.311891
 21
51.931667
 31
0.0
  0
LINE
  5
36d
100
AcDbEntity
  8
Layer_1
 62
7
100
AcDbLine
 10
212.311891
 20
51.931667
 30
0.0
 11
212.369662
 21
51.347759
 31
0.0
  0
LINE
  5
36e
100
AcDbEntity
  8
Layer_1
 62
7
100
AcDbLine
 10
212.369662
 20
51.347759
 30
0.0
 11
212.369662
 21
51.347759
 31
0.0
  0
LINE
  5
36f
100
AcDbEntity
  8
Layer_1
 62
7
100
AcDbLine
 10
227.287235
 20
51.347759
 30
0.0
 11
227.226710
 21
50.747367
 31
0.0
  0
LINE
  5
370
100
AcDbEntity
  8
Layer_1
 62
7
100
AcDbLine
 10
227.226710
 20
50.747367
 30
0.0
 11
227.053122
 21
50.188159
 31
0.0
  0
LINE
  5
371
100
AcDbEntity
  8
Layer_1
 62
7
100
AcDbLine
 10
227.053122
 20
50.188159
 30
0.0
 11
226.778450
 21
49.682116
 31
0.0
  0
LINE
  5
372
100
AcDbEntity
  8
Layer_1
 62
7
100
AcDbLine
 10
226.778450
 20
49.682116
 30
0.0
 11
226.414676
 21
49.241218
 31
0.0
  0
LINE
  5
373
100
AcDbEntity
  8
Layer_1
 62
7
100
AcDbLine
 10
226.414676
 20
49.241218
 30
0.0
 11
225.973777
 21
48.877443
 31
0.0
  0
LINE
  5
374
100
AcDbEntity
  8
Layer_1
 62
7
100
AcDbLine
 10
225.973777
 20
48.877443
 30
0.0
 11
225.467734
 21
48.602773
 31
0.0
  0
LINE
  5
375
100
AcDbEntity
  8
Layer_1
 62
7
100
AcDbLine
 10
225.467734
 20
48.602773
 30
0.0
 11
224.908526
 21
48.429185
 31
0.0
  0
LINE
  5
376
100
AcDbEntity
  8
Layer_1
 62
7
100
AcDbLine
 10
224.908526
 20
48.429185
 30
0.0
 11
224.308134
 21
48.368661
 31
0.0
  0
LINE
  5
377
100
AcDbEntity
  8
Layer_1
 62
7
100
AcDbLine
 10
224.308134
 20
48.368661
 30
0.0
 11
223.707742
 21
48.429186
 31
0.0
  0
LINE
  5
378
100
AcDbEntity
  8
Layer_1
 62
7
100
AcDbLine
 10
223.707742
 20
48.429186
 30
0.0
 11
223.148535
 21
48.602774
 31
0.0
  0
LINE
  5
379
100
AcDbEntity
  8
Layer_1
 62
7
100
AcDbLine
 10
223.148535
 20
48.602774
 30
0.0
 11
222.642492
 21
48.877444
 31
0.0
  0
LINE
  5
37a
100
AcDbEntity
  8
Layer_1
 62
7
100
AcDbLine
 10
222.642492
 20
48.877444
 30
0.0
 11
222.201594
 21
49.241219
 31
0.0
  0
LINE
  5
37b
100
AcDbEntity
  8
Layer_1
 62
7
100
AcDbLine
 10
222.201594
 20
49.241219
 30
0.0
 11
221.837819
 21
49.682117
 31
0.0
  0
LINE
  5
37c
100
AcDbEntity
  8
Layer_1
 62
7
100
AcDbLine
 10
221.837819
 20
49.682117
 30
0.0
 11
221.563148
 21
50.188160
 31
0.0
  0
LINE
  5
37d
100
AcDbEntity
  8
Layer_1
 62
7
100
AcDbLine
 10
221.563148
 20
50.188160
 30
0.0
 11
221.389561
 21
50.747367
 31
0.0
  0
LINE
  5
37e
100
AcDbEntity
  8
Layer_1
 62
7
100
AcDbLine
 10
221.389561
 20
50.747367
 30
0.0
 11
221.329036
 21
51.347759
 31
0.0
  0
LINE
  5
37f
100
AcDbEntity
  8
Layer_1
 62
7
100
AcDbLine
 10
221.329036
 20
51.347759
 30
0.0
 11
221.389560
 21
51.948151
 31
0.0
  0
LINE
  5
380
100
AcDbEntity
  8
Layer_1
 62
7
100
AcDbLine
 10
221.389560
 20
51.948151
 30
0.0
 11
221.563148
 21
52.507359
 31
0.0
  0
LINE
  5
381
100
AcDbEntity
  8
Layer_1
 62
7
100
AcDbLine
 10
221.563148
 20
52.507359
 30
0.0
 11
221.837818
 21
53.013402
 31
0.0
  0
LINE
  5
382
100
AcDbEntity
  8
Layer_1
 62
7
100
AcDbLine
 10
221.837818
 20
53.013402
 30
0.0
 11
222.201593
 21
53.454301
 31
0.0
  0
LINE
  5
383
100
AcDbEntity
  8
Layer_1
 62
7
100
AcDbLine
 10
222.201593
 20
53.454301
 30
0.0
 11
222.642491
 21
53.818076
 31
0.0
  0
LINE
  5
384
100
AcDbEntity
  8
Layer_1
 62
7
100
AcDbLine
 10
222.642491
 20
53.818076
 30
0.0
 11
223.148534
 21
54.092747
 31
0.0
  0
LINE
  5
385
100
AcDbEntity
  8
Layer_1
 62
7
100
AcDbLine
 10
223.148534
 20
54.092747
 30
0.0
 11
223.707741
 21
54.266335
 31
0.0
  0
LINE
  5
386
100
AcDbEntity
  8
Layer_1
 62
7
100
AcDbLine
 10
223.707741
 20
54.266335
 30
0.0
 11
224.308134
 21
54.326860
 31
0.0
  0
LINE
  5
387
100
AcDbEntity
  8
Layer_1
 62
7
100
AcDbLine
 10
224.308134
 20
54.326860
 30
0.0
 11
224.892042
 21
54.269089
 31
0.0
  0
LINE
  5
388
100
AcDbEntity
  8
Layer_1
 62
7
100
AcDbLine
 10
224.892042
 20
54.269089
 30
0.0
 11
225.448186
 21
54.100090
 31
0.0
  0
LINE
  5
389
100
AcDbEntity
  8
Layer_1
 62
7
100
AcDbLine
 10
225.448186
 20
54.100090
 30
0.0
 11
225.960941
 21
53.826336
 31
0.0
  0
LINE
  5
38a
100
AcDbEntity
  8
Layer_1
 62
7
100
AcDbLine
 10
225.960941
 20
53.826336
 30
0.0
 11
226.414677
 21
53.454302
 31
0.0
  0
LINE
  5
38b
100
AcDbEntity
  8
Layer_1
 62
7
100
AcDbLine
 10
226.414677
 20
53.454302
 30
0.0
 11
226.786711
 21
53.000566
 31
0.0
  0
LINE
  5
38c
100
AcDbEntity
  8
Layer_1
 62
7
100
AcDbLine
 10
226.786711
 20
53.000566
 30
0.0
 11
227.060464
 21
52.487812
 31
0.0
  0
LINE
  5
38d
100
AcDbEntity
  8
Layer_1
 62
7
100
AcDbLine
 10
227.060464
 20
52.487812
 30
0.0
 11
227.229463
 21
51.931667
 31
0.0
  0
LINE
  5
38e
100
AcDbEntity
  8
Layer_1
 62
7
100
AcDbLine
 10
227.229463
 20
51.931667
 30
0.0
 11
227.287235
 21
51.347759
 31
0.0
  0
LINE
  5
38f
100
AcDbEntity
  8
Layer_1
 62
7
100
AcDbLine
 10
227.287235
 20
51.347759
 30
0.0
 11
227.287235
 21
51.347759
 31
0.0
  0
LINE
  5
390
100
AcDbEntity
  8
Layer_1
 62
7
100
AcDbLine
 10
212.369662
 20
36.459176
 30
0.0
 11
212.311891
 21
35.875269
 31
0.0
  0
LINE
  5
391
100
AcDbEntity
  8
Layer_1
 62
7
100
AcDbLine
 10
212.311891
 20
35.875269
 30
0.0
 11
212.142892
 21
35.319124
 31
0.0
  0
LINE
  5
392
100
AcDbEntity
  8
Layer_1
 62
7
100
AcDbLine
 10
212.142892
 20
35.319124
 30
0.0
 11
211.869139
 21
34.806369
 31
0.0
  0
LINE
  5
393
100
AcDbEntity
  8
Layer_1
 62
7
100
AcDbLine
 10
211.869139
 20
34.806369
 30
0.0
 11
211.497104
 21
34.352634
 31
0.0
  0
LINE
  5
394
100
AcDbEntity
  8
Layer_1
 62
7
100
AcDbLine
 10
211.497104
 20
34.352634
 30
0.0
 11
211.043368
 21
33.980599
 31
0.0
  0
LINE
  5
395
100
AcDbEntity
  8
Layer_1
 62
7
100
AcDbLine
 10
211.043368
 20
33.980599
 30
0.0
 11
210.530614
 21
33.706846
 31
0.0
  0
LINE
  5
396
100
AcDbEntity
  8
Layer_1
 62
7
100
AcDbLine
 10
210.530614
 20
33.706846
 30
0.0
 11
209.974469
 21
33.537847
 31
0.0
  0
LINE
  5
397
100
AcDbEntity
  8
Layer_1
 62
7
100
AcDbLine
 10
209.974469
 20
33.537847
 30
0.0
 11
209.390561
 21
33.480075
 31
0.0
  0
LINE
  5
398
100
AcDbEntity
  8
Layer_1
 62
7
100
AcDbLine
 10
209.390561
 20
33.480075
 30
0.0
 11
208.806654
 21
33.537847
 31
0.0
  0
LINE
  5
399
100
AcDbEntity
  8
Layer_1
 62
7
100
AcDbLine
 10
208.806654
 20
33.537847
 30
0.0
 11
208.250509
 21
33.706846
 31
0.0
  0
LINE
  5
39a
100
AcDbEntity
  8
Layer_1
 62
7
100
AcDbLine
 10
208.250509
 20
33.706846
 30
0.0
 11
207.737754
 21
33.980599
 31
0.0
  0
LINE
  5
39b
100
AcDbEntity
  8
Layer_1
 62
7
100
AcDbLine
 10
207.737754
 20
33.980599
 30
0.0
 11
207.284019
 21
34.352634
 31
0.0
  0
LINE
  5
39c
100
AcDbEntity
  8
Layer_1
 62
7
100
AcDbLine
 10
207.284019
 20
34.352634
 30
0.0
 11
206.911984
 21
34.806369
 31
0.0
  0
LINE
  5
39d
100
AcDbEntity
  8
Layer_1
 62
7
100
AcDbLine
 10
206.911984
 20
34.806369
 30
0.0
 11
206.638231
 21
35.319124
 31
0.0
  0
LINE
  5
39e
100
AcDbEntity
  8
Layer_1
 62
7
100
AcDbLine
 10
206.638231
 20
35.319124
 30
0.0
 11
206.469232
 21
35.875269
 31
0.0
  0
LINE
  5
39f
100
AcDbEntity
  8
Layer_1
 62
7
100
AcDbLine
 10
206.469232
 20
35.875269
 30
0.0
 11
206.411460
 21
36.459176
 31
0.0
  0
LINE
  5
3a0
100
AcDbEntity
  8
Layer_1
 62
7
100
AcDbLine
 10
206.411460
 20
36.459176
 30
0.0
 11
206.469232
 21
37.043084
 31
0.0
  0
LINE
  5
3a1
100
AcDbEntity
  8
Layer_1
 62
7
100
AcDbLine
 10
206.469232
 20
37.043084
 30
0.0
 11
206.638231
 21
37.599229
 31
0.0
  0
LINE
  5
3a2
100
AcDbEntity
  8
Layer_1
 62
7
100
AcDbLine
 10
206.638231
 20
37.599229
 30
0.0
 11
206.911984
 21
38.111983
 31
0.0
  0
LINE
  5
3a3
100
AcDbEntity
  8
Layer_1
 62
7
100
AcDbLine
 10
206.911984
 20
38.111983
 30
0.0
 11
207.284019
 21
38.565719
 31
0.0
  0
LINE
  5
3a4
100
AcDbEntity
  8
Layer_1
 62
7
100
AcDbLine
 10
207.284019
 20
38.565719
 30
0.0
 11
207.737754
 21
38.937754
 31
0.0
  0
LINE
  5
3a5
100
AcDbEntity
  8
Layer_1
 62
7
100
AcDbLine
 10
207.737754
 20
38.937754
 30
0.0
 11
208.250509
 21
39.211507
 31
0.0
  0
LINE
  5
3a6
100
AcDbEntity
  8
Layer_1
 62
7
100
AcDbLine
 10
208.250509
 20
39.211507
 30
0.0
 11
208.806654
 21
39.380506
 31
0.0
  0
LINE
  5
3a7
100
AcDbEntity
  8
Layer_1
 62
7
100
AcDbLine
 10
208.806654
 20
39.380506
 30
0.0
 11
209.390561
 21
39.438278
 31
0.0
  0
LINE
  5
3a8
100
AcDbEntity
  8
Layer_1
 62
7
100
AcDbLine
 10
209.390561
 20
39.438278
 30
0.0
 11
209.974469
 21
39.380506
 31
0.0
  0
LINE
  5
3a9
100
AcDbEntity
  8
Layer_1
 62
7
100
AcDbLine
 10
209.974469
 20
39.380506
 30
0.0
 11
210.530614
 21
39.211507
 31
0.0
  0
LINE
  5
3aa
100
AcDbEntity
  8
Layer_1
 62
7
100
AcDbLine
 10
210.530614
 20
39.211507
 30
0.0
 11
211.043368
 21
38.937754
 31
0.0
  0
LINE
  5
3ab
100
AcDbEntity
  8
Layer_1
 62
7
100
AcDbLine
 10
211.043368
 20
38.937754
 30
0.0
 11
211.497104
 21
38.565719
 31
0.0
  0
LINE
  5
3ac
100
AcDbEntity
  8
Layer_1
 62
7
100
AcDbLine
 10
211.497104
 20
38.565719
 30
0.0
 11
211.869139
 21
38.111983
 31
0.0
  0
LINE
  5
3ad
100
AcDbEntity
  8
Layer_1
 62
7
100
AcDbLine
 10
211.869139
 20
38.111983
 30
0.0
 11
212.142892
 21
37.599229
 31
0.0
  0
LINE
  5
3ae
100
AcDbEntity
  8
Layer_1
 62
7
100
AcDbLine
 10
212.142892
 20
37.599229
 30
0.0
 11
212.311891
 21
37.043084
 31
0.0
  0
LINE
  5
3af
100
AcDbEntity
  8
Layer_1
 62
7
100
AcDbLine
 10
212.311891
 20
37.043084
 30
0.0
 11
212.369662
 21
36.459176
 31
0.0
  0
LINE
  5
3b0
100
AcDbEntity
  8
Layer_1
 62
7
100
AcDbLine
 10
212.369662
 20
36.459176
 30
0.0
 11
212.369662
 21
36.459176
 31
0.0
  0
LINE
  5
3b1
100
AcDbEntity
  8
Layer_1
 62
7
100
AcDbLine
 10
227.287235
 20
36.459176
 30
0.0
 11
227.229463
 21
35.875269
 31
0.0
  0
LINE
  5
3b2
100
AcDbEntity
  8
Layer_1
 62
7
100
AcDbLine
 10
227.229463
 20
35.875269
 30
0.0
 11
227.060464
 21
35.319124
 31
0.0
  0
LINE
  5
3b3
100
AcDbEntity
  8
Layer_1
 62
7
100
AcDbLine
 10
227.060464
 20
35.319124
 30
0.0
 11
226.786711
 21
34.806369
 31
0.0
  0
LINE
  5
3b4
100
AcDbEntity
  8
Layer_1
 62
7
100
AcDbLine
 10
226.786711
 20
34.806369
 30
0.0
 11
226.414677
 21
34.352634
 31
0.0
  0
LINE
  5
3b5
100
AcDbEntity
  8
Layer_1
 62
7
100
AcDbLine
 10
226.414677
 20
34.352634
 30
0.0
 11
225.960941
 21
33.980599
 31
0.0
  0
LINE
  5
3b6
100
AcDbEntity
  8
Layer_1
 62
7
100
AcDbLine
 10
225.960941
 20
33.980599
 30
0.0
 11
225.448186
 21
33.706846
 31
0.0
  0
LINE
  5
3b7
100
AcDbEntity
  8
Layer_1
 62
7
100
AcDbLine
 10
225.448186
 20
33.706846
 30
0.0
 11
224.892042
 21
33.537847
 31
0.0
  0
LINE
  5
3b8
100
AcDbEntity
  8
Layer_1
 62
7
100
AcDbLine
 10
224.892042
 20
33.537847
 30
0.0
 11
224.308134
 21
33.480075
 31
0.0
  0
LINE
  5
3b9
100
AcDbEntity
  8
Layer_1
 62
7
100
AcDbLine
 10
224.308134
 20
33.480075
 30
0.0
 11
223.707741
 21
33.540600
 31
0.0
  0
LINE
  5
3ba
100
AcDbEntity
  8
Layer_1
 62
7
100
AcDbLine
 10
223.707741
 20
33.540600
 30
0.0
 11
223.148534
 21
33.714188
 31
0.0
  0
LINE
  5
3bb
100
AcDbEntity
  8
Layer_1
 62
7
100
AcDbLine
 10
223.148534
 20
33.714188
 30
0.0
 11
222.642491
 21
33.988860
 31
0.0
  0
LINE
  5
3bc
100
AcDbEntity
  8
Layer_1
 62
7
100
AcDbLine
 10
222.642491
 20
33.988860
 30
0.0
 11
222.201593
 21
34.352635
 31
0.0
  0
LINE
  5
3bd
100
AcDbEntity
  8
Layer_1
 62
7
100
AcDbLine
 10
222.201593
 20
34.352635
 30
0.0
 11
221.837818
 21
34.793533
 31
0.0
  0
LINE
  5
3be
100
AcDbEntity
  8
Layer_1
 62
7
100
AcDbLine
 10
221.837818
 20
34.793533
 30
0.0
 11
221.563148
 21
35.299576
 31
0.0
  0
LINE
  5
3bf
100
AcDbEntity
  8
Layer_1
 62
7
100
AcDbLine
 10
221.563148
 20
35.299576
 30
0.0
 11
221.389560
 21
35.858784
 31
0.0
  0
LINE
  5
3c0
100
AcDbEntity
  8
Layer_1
 62
7
100
AcDbLine
 10
221.389560
 20
35.858784
 30
0.0
 11
221.329036
 21
36.459176
 31
0.0
  0
LINE
  5
3c1
100
AcDbEntity
  8
Layer_1
 62
7
100
AcDbLine
 10
221.329036
 20
36.459176
 30
0.0
 11
221.389560
 21
37.059569
 31
0.0
  0
LINE
  5
3c2
100
AcDbEntity
  8
Layer_1
 62
7
100
AcDbLine
 10
221.389560
 20
37.059569
 30
0.0
 11
221.563148
 21
37.618776
 31
0.0
  0
LINE
  5
3c3
100
AcDbEntity
  8
Layer_1
 62
7
100
AcDbLine
 10
221.563148
 20
37.618776
 30
0.0
 11
221.837818
 21
38.124820
 31
0.0
  0
LINE
  5
3c4
100
AcDbEntity
  8
Layer_1
 62
7
100
AcDbLine
 10
221.837818
 20
38.124820
 30
0.0
 11
222.201593
 21
38.565718
 31
0.0
  0
LINE
  5
3c5
100
AcDbEntity
  8
Layer_1
 62
7
100
AcDbLine
 10
222.201593
 20
38.565718
 30
0.0
 11
222.642491
 21
38.929493
 31
0.0
  0
LINE
  5
3c6
100
AcDbEntity
  8
Layer_1
 62
7
100
AcDbLine
 10
222.642491
 20
38.929493
 30
0.0
 11
223.148534
 21
39.204164
 31
0.0
  0
LINE
  5
3c7
100
AcDbEntity
  8
Layer_1
 62
7
100
AcDbLine
 10
223.148534
 20
39.204164
 30
0.0
 11
223.707741
 21
39.377752
 31
0.0
  0
LINE
  5
3c8
100
AcDbEntity
  8
Layer_1
 62
7
100
AcDbLine
 10
223.707741
 20
39.377752
 30
0.0
 11
224.308134
 21
39.438278
 31
0.0
  0
LINE
  5
3c9
100
AcDbEntity
  8
Layer_1
 62
7
100
AcDbLine
 10
224.308134
 20
39.438278
 30
0.0
 11
224.892042
 21
39.380506
 31
0.0
  0
LINE
  5
3ca
100
AcDbEntity
  8
Layer_1
 62
7
100
AcDbLine
 10
224.892042
 20
39.380506
 30
0.0
 11
225.448186
 21
39.211507
 31
0.0
  0
LINE
  5
3cb
100
AcDbEntity
  8
Layer_1
 62
7
100
AcDbLine
 10
225.448186
 20
39.211507
 30
0.0
 11
225.960941
 21
38.937754
 31
0.0
  0
LINE
  5
3cc
100
AcDbEntity
  8
Layer_1
 62
7
100
AcDbLine
 10
225.960941
 20
38.937754
 30
0.0
 11
226.414677
 21
38.565719
 31
0.0
  0
LINE
  5
3cd
100
AcDbEntity
  8
Layer_1
 62
7
100
AcDbLine
 10
226.414677
 20
38.565719
 30
0.0
 11
226.786711
 21
38.111983
 31
0.0
  0
LINE
  5
3ce
100
AcDbEntity
  8
Layer_1
 62
7
100
AcDbLine
 10
226.786711
 20
38.111983
 30
0.0
 11
227.060464
 21
37.599229
 31
0.0
  0
LINE
  5
3cf
100
AcDbEntity
  8
Layer_1
 62
7
100
AcDbLine
 10
227.060464
 20
37.599229
 30
0.0
 11
227.229463
 21
37.043084
 31
0.0
  0
LINE
  5
3d0
100
AcDbEntity
  8
Layer_1
 62
7
100
AcDbLine
 10
227.229463
 20
37.043084
 30
0.0
 11
227.287235
 21
36.459176
 31
0.0
  0
LINE
  5
3d1
100
AcDbEntity
  8
Layer_1
 62
7
100
AcDbLine
 10
227.287235
 20
36.459176
 30
0.0
 11
227.287235
 21
36.459176
 31
0.0
  0
LINE
  5
3d2
100
AcDbEntity
  8
Layer_1
 62
7
100
AcDbLine
 10
212.369662
 20
21.570594
 30
0.0
 11
212.311891
 21
20.986686
 31
0.0
  0
LINE
  5
3d3
100
AcDbEntity
  8
Layer_1
 62
7
100
AcDbLine
 10
212.311891
 20
20.986686
 30
0.0
 11
212.142892
 21
20.430541
 31
0.0
  0
LINE
  5
3d4
100
AcDbEntity
  8
Layer_1
 62
7
100
AcDbLine
 10
212.142892
 20
20.430541
 30
0.0
 11
211.869139
 21
19.917787
 31
0.0
  0
LINE
  5
3d5
100
AcDbEntity
  8
Layer_1
 62
7
100
AcDbLine
 10
211.869139
 20
19.917787
 30
0.0
 11
211.497104
 21
19.464051
 31
0.0
  0
LINE
  5
3d6
100
AcDbEntity
  8
Layer_1
 62
7
100
AcDbLine
 10
211.497104
 20
19.464051
 30
0.0
 11
211.043368
 21
19.092016
 31
0.0
  0
LINE
  5
3d7
100
AcDbEntity
  8
Layer_1
 62
7
100
AcDbLine
 10
211.043368
 20
19.092016
 30
0.0
 11
210.530614
 21
18.818263
 31
0.0
  0
LINE
  5
3d8
100
AcDbEntity
  8
Layer_1
 62
7
100
AcDbLine
 10
210.530614
 20
18.818263
 30
0.0
 11
209.974469
 21
18.649264
 31
0.0
  0
LINE
  5
3d9
100
AcDbEntity
  8
Layer_1
 62
7
100
AcDbLine
 10
209.974469
 20
18.649264
 30
0.0
 11
209.390561
 21
18.591493
 31
0.0
  0
LINE
  5
3da
100
AcDbEntity
  8
Layer_1
 62
7
100
AcDbLine
 10
209.390561
 20
18.591493
 30
0.0
 11
208.806654
 21
18.649264
 31
0.0
  0
LINE
  5
3db
100
AcDbEntity
  8
Layer_1
 62
7
100
AcDbLine
 10
208.806654
 20
18.649264
 30
0.0
 11
208.250509
 21
18.818263
 31
0.0
  0
LINE
  5
3dc
100
AcDbEntity
  8
Layer_1
 62
7
100
AcDbLine
 10
208.250509
 20
18.818263
 30
0.0
 11
207.737754
 21
19.092016
 31
0.0
  0
LINE
  5
3dd
100
AcDbEntity
  8
Layer_1
 62
7
100
AcDbLine
 10
207.737754
 20
19.092016
 30
0.0
 11
207.284019
 21
19.464051
 31
0.0
  0
LINE
  5
3de
100
AcDbEntity
  8
Layer_1
 62
7
100
AcDbLine
 10
207.284019
 20
19.464051
 30
0.0
 11
206.911984
 21
19.917787
 31
0.0
  0
LINE
  5
3df
100
AcDbEntity
  8
Layer_1
 62
7
100
AcDbLine
 10
206.911984
 20
19.917787
 30
0.0
 11
206.638231
 21
20.430541
 31
0.0
  0
LINE
  5
3e0
100
AcDbEntity
  8
Layer_1
 62
7
100
AcDbLine
 10
206.638231
 20
20.430541
 30
0.0
 11
206.469232
 21
20.986686
 31
0.0
  0
LINE
  5
3e1
100
AcDbEntity
  8
Layer_1
 62
7
100
AcDbLine
 10
206.469232
 20
20.986686
 30
0.0
 11
206.411460
 21
21.570594
 31
0.0
  0
LINE
  5
3e2
100
AcDbEntity
  8
Layer_1
 62
7
100
AcDbLine
 10
206.411460
 20
21.570594
 30
0.0
 11
206.469232
 21
22.154502
 31
0.0
  0
LINE
  5
3e3
100
AcDbEntity
  8
Layer_1
 62
7
100
AcDbLine
 10
206.469232
 20
22.154502
 30
0.0
 11
206.638231
 21
22.710647
 31
0.0
  0
LINE
  5
3e4
100
AcDbEntity
  8
Layer_1
 62
7
100
AcDbLine
 10
206.638231
 20
22.710647
 30
0.0
 11
206.911984
 21
23.223401
 31
0.0
  0
LINE
  5
3e5
100
AcDbEntity
  8
Layer_1
 62
7
100
AcDbLine
 10
206.911984
 20
23.223401
 30
0.0
 11
207.284019
 21
23.677137
 31
0.0
  0
LINE
  5
3e6
100
AcDbEntity
  8
Layer_1
 62
7
100
AcDbLine
 10
207.284019
 20
23.677137
 30
0.0
 11
207.737754
 21
24.049171
 31
0.0
  0
LINE
  5
3e7
100
AcDbEntity
  8
Layer_1
 62
7
100
AcDbLine
 10
207.737754
 20
24.049171
 30
0.0
 11
208.250509
 21
24.322925
 31
0.0
  0
LINE
  5
3e8
100
AcDbEntity
  8
Layer_1
 62
7
100
AcDbLine
 10
208.250509
 20
24.322925
 30
0.0
 11
208.806654
 21
24.491924
 31
0.0
  0
LINE
  5
3e9
100
AcDbEntity
  8
Layer_1
 62
7
100
AcDbLine
 10
208.806654
 20
24.491924
 30
0.0
 11
209.390561
 21
24.549695
 31
0.0
  0
LINE
  5
3ea
100
AcDbEntity
  8
Layer_1
 62
7
100
AcDbLine
 10
209.390561
 20
24.549695
 30
0.0
 11
209.974469
 21
24.491924
 31
0.0
  0
LINE
  5
3eb
100
AcDbEntity
  8
Layer_1
 62
7
100
AcDbLine
 10
209.974469
 20
24.491924
 30
0.0
 11
210.530614
 21
24.322925
 31
0.0
  0
LINE
  5
3ec
100
AcDbEntity
  8
Layer_1
 62
7
100
AcDbLine
 10
210.530614
 20
24.322925
 30
0.0
 11
211.043368
 21
24.049171
 31
0.0
  0
LINE
  5
3ed
100
AcDbEntity
  8
Layer_1
 62
7
100
AcDbLine
 10
211.043368
 20
24.049171
 30
0.0
 11
211.497104
 21
23.677137
 31
0.0
  0
LINE
  5
3ee
100
AcDbEntity
  8
Layer_1
 62
7
100
AcDbLine
 10
211.497104
 20
23.677137
 30
0.0
 11
211.869139
 21
23.223401
 31
0.0
  0
LINE
  5
3ef
100
AcDbEntity
  8
Layer_1
 62
7
100
AcDbLine
 10
211.869139
 20
23.223401
 30
0.0
 11
212.142892
 21
22.710647
 31
0.0
  0
LINE
  5
3f0
100
AcDbEntity
  8
Layer_1
 62
7
100
AcDbLine
 10
212.142892
 20
22.710647
 30
0.0
 11
212.311891
 21
22.154502
 31
0.0
  0
LINE
  5
3f1
100
AcDbEntity
  8
Layer_1
 62
7
100
AcDbLine
 10
212.311891
 20
22.154502
 30
0.0
 11
212.369662
 21
21.570594
 31
0.0
  0
LINE
  5
3f2
100
AcDbEntity
  8
Layer_1
 62
7
100
AcDbLine
 10
212.369662
 20
21.570594
 30
0.0
 11
212.369662
 21
21.570594
 31
0.0
  0
LINE
  5
3f3
100
AcDbEntity
  8
Layer_1
 62
7
100
AcDbLine
 10
227.287235
 20
21.570594
 30
0.0
 11
227.229463
 21
20.986686
 31
0.0
  0
LINE
  5
3f4
100
AcDbEntity
  8
Layer_1
 62
7
100
AcDbLine
 10
227.229463
 20
20.986686
 30
0.0
 11
227.060464
 21
20.430541
 31
0.0
  0
LINE
  5
3f5
100
AcDbEntity
  8
Layer_1
 62
7
100
AcDbLine
 10
227.060464
 20
20.430541
 30
0.0
 11
226.786711
 21
19.917787
 31
0.0
  0
LINE
  5
3f6
100
AcDbEntity
  8
Layer_1
 62
7
100
AcDbLine
 10
226.786711
 20
19.917787
 30
0.0
 11
226.414677
 21
19.464051
 31
0.0
  0
LINE
  5
3f7
100
AcDbEntity
  8
Layer_1
 62
7
100
AcDbLine
 10
226.414677
 20
19.464051
 30
0.0
 11
225.960941
 21
19.092016
 31
0.0
  0
LINE
  5
3f8
100
AcDbEntity
  8
Layer_1
 62
7
100
AcDbLine
 10
225.960941
 20
19.092016
 30
0.0
 11
225.448186
 21
18.818263
 31
0.0
  0
LINE
  5
3f9
100
AcDbEntity
  8
Layer_1
 62
7
100
AcDbLine
 10
225.448186
 20
18.818263
 30
0.0
 11
224.892042
 21
18.649264
 31
0.0
  0
LINE
  5
3fa
100
AcDbEntity
  8
Layer_1
 62
7
100
AcDbLine
 10
224.892042
 20
18.649264
 30
0.0
 11
224.308134
 21
18.591493
 31
0.0
  0
LINE
  5
3fb
100
AcDbEntity
  8
Layer_1
 62
7
100
AcDbLine
 10
224.308134
 20
18.591493
 30
0.0
 11
223.707741
 21
18.652018
 31
0.0
  0
LINE
  5
3fc
100
AcDbEntity
  8
Layer_1
 62
7
100
AcDbLine
 10
223.707741
 20
18.652018
 30
0.0
 11
223.148534
 21
18.825606
 31
0.0
  0
LINE
  5
3fd
100
AcDbEntity
  8
Layer_1
 62
7
100
AcDbLine
 10
223.148534
 20
18.825606
 30
0.0
 11
222.642491
 21
19.100277
 31
0.0
  0
LINE
  5
3fe
100
AcDbEntity
  8
Layer_1
 62
7
100
AcDbLine
 10
222.642491
 20
19.100277
 30
0.0
 11
222.201593
 21
19.464052
 31
0.0
  0
LINE
  5
3ff
100
AcDbEntity
  8
Layer_1
 62
7
100
AcDbLine
 10
222.201593
 20
19.464052
 30
0.0
 11
221.837818
 21
19.904951
 31
0.0
  0
LINE
  5
400
100
AcDbEntity
  8
Layer_1
 62
7
100
AcDbLine
 10
221.837818
 20
19.904951
 30
0.0
 11
221.563148
 21
20.410994
 31
0.0
  0
LINE
  5
401
100
AcDbEntity
  8
Layer_1
 62
7
100
AcDbLine
 10
221.563148
 20
20.410994
 30
0.0
 11
221.389560
 21
20.970201
 31
0.0
  0
LINE
  5
402
100
AcDbEntity
  8
Layer_1
 62
7
100
AcDbLine
 10
221.389560
 20
20.970201
 30
0.0
 11
221.329036
 21
21.570594
 31
0.0
  0
LINE
  5
403
100
AcDbEntity
  8
Layer_1
 62
7
100
AcDbLine
 10
221.329036
 20
21.570594
 30
0.0
 11
221.389560
 21
22.170986
 31
0.0
  0
LINE
  5
404
100
AcDbEntity
  8
Layer_1
 62
7
100
AcDbLine
 10
221.389560
 20
22.170986
 30
0.0
 11
221.563148
 21
22.730194
 31
0.0
  0
LINE
  5
405
100
AcDbEntity
  8
Layer_1
 62
7
100
AcDbLine
 10
221.563148
 20
22.730194
 30
0.0
 11
221.837818
 21
23.236237
 31
0.0
  0
LINE
  5
406
100
AcDbEntity
  8
Layer_1
 62
7
100
AcDbLine
 10
221.837818
 20
23.236237
 30
0.0
 11
222.201593
 21
23.677136
 31
0.0
  0
LINE
  5
407
100
AcDbEntity
  8
Layer_1
 62
7
100
AcDbLine
 10
222.201593
 20
23.677136
 30
0.0
 11
222.642491
 21
24.040911
 31
0.0
  0
LINE
  5
408
100
AcDbEntity
  8
Layer_1
 62
7
100
AcDbLine
 10
222.642491
 20
24.040911
 30
0.0
 11
223.148534
 21
24.315582
 31
0.0
  0
LINE
  5
409
100
AcDbEntity
  8
Layer_1
 62
7
100
AcDbLine
 10
223.148534
 20
24.315582
 30
0.0
 11
223.707741
 21
24.489170
 31
0.0
  0
LINE
  5
40a
100
AcDbEntity
  8
Layer_1
 62
7
100
AcDbLine
 10
223.707741
 20
24.489170
 30
0.0
 11
224.308134
 21
24.549695
 31
0.0
  0
LINE
  5
40b
100
AcDbEntity
  8
Layer_1
 62
7
100
AcDbLine
 10
224.308134
 20
24.549695
 30
0.0
 11
224.892042
 21
24.491924
 31
0.0
  0
LINE
  5
40c
100
AcDbEntity
  8
Layer_1
 62
7
100
AcDbLine
 10
224.892042
 20
24.491924
 30
0.0
 11
225.448186
 21
24.322925
 31
0.0
  0
LINE
  5
40d
100
AcDbEntity
  8
Layer_1
 62
7
100
AcDbLine
 10
225.448186
 20
24.322925
 30
0.0
 11
225.960941
 21
24.049171
 31
0.0
  0
LINE
  5
40e
100
AcDbEntity
  8
Layer_1
 62
7
100
AcDbLine
 10
225.960941
 20
24.049171
 30
0.0
 11
226.414677
 21
23.677137
 31
0.0
  0
LINE
  5
40f
100
AcDbEntity
  8
Layer_1
 62
7
100
AcDbLine
 10
226.414677
 20
23.677137
 30
0.0
 11
226.786711
 21
23.223401
 31
0.0
  0
LINE
  5
410
100
AcDbEntity
  8
Layer_1
 62
7
100
AcDbLine
 10
226.786711
 20
23.223401
 30
0.0
 11
227.060464
 21
22.710647
 31
0.0
  0
LINE
  5
411
100
AcDbEntity
  8
Layer_1
 62
7
100
AcDbLine
 10
227.060464
 20
22.710647
 30
0.0
 11
227.229463
 21
22.154502
 31
0.0
  0
LINE
  5
412
100
AcDbEntity
  8
Layer_1
 62
7
100
AcDbLine
 10
227.229463
 20
22.154502
 30
0.0
 11
227.287235
 21
21.570594
 31
0.0
  0
LINE
  5
413
100
AcDbEntity
  8
Layer_1
 62
7
100
AcDbLine
 10
227.287235
 20
21.570594
 30
0.0
 11
227.287235
 21
21.570594
 31
0.0
  0
LINE
  5
414
100
AcDbEntity
  8
Layer_1
 62
7
100
AcDbLine
 10
204.910890
 20
59.202147
 30
0.0
 11
204.850366
 21
58.601755
 31
0.0
  0
LINE
  5
415
100
AcDbEntity
  8
Layer_1
 62
7
100
AcDbLine
 10
204.850366
 20
58.601755
 30
0.0
 11
204.676778
 21
58.042547
 31
0.0
  0
LINE
  5
416
100
AcDbEntity
  8
Layer_1
 62
7
100
AcDbLine
 10
204.676778
 20
58.042547
 30
0.0
 11
204.402107
 21
57.536504
 31
0.0
  0
LINE
  5
417
100
AcDbEntity
  8
Layer_1
 62
7
100
AcDbLine
 10
204.402107
 20
57.536504
 30
0.0
 11
204.038333
 21
57.095605
 31
0.0
  0
LINE
  5
418
100
AcDbEntity
  8
Layer_1
 62
7
100
AcDbLine
 10
204.038333
 20
57.095605
 30
0.0
 11
203.597435
 21
56.731831
 31
0.0
  0
LINE
  5
419
100
AcDbEntity
  8
Layer_1
 62
7
100
AcDbLine
 10
203.597435
 20
56.731831
 30
0.0
 11
203.091392
 21
56.457159
 31
0.0
  0
LINE
  5
41a
100
AcDbEntity
  8
Layer_1
 62
7
100
AcDbLine
 10
203.091392
 20
56.457159
 30
0.0
 11
202.532184
 21
56.283571
 31
0.0
  0
LINE
  5
41b
100
AcDbEntity
  8
Layer_1
 62
7
100
AcDbLine
 10
202.532184
 20
56.283571
 30
0.0
 11
201.931792
 21
56.223046
 31
0.0
  0
LINE
  5
41c
100
AcDbEntity
  8
Layer_1
 62
7
100
AcDbLine
 10
201.931792
 20
56.223046
 30
0.0
 11
201.347884
 21
56.280818
 31
0.0
  0
LINE
  5
41d
100
AcDbEntity
  8
Layer_1
 62
7
100
AcDbLine
 10
201.347884
 20
56.280818
 30
0.0
 11
200.791739
 21
56.449817
 31
0.0
  0
LINE
  5
41e
100
AcDbEntity
  8
Layer_1
 62
7
100
AcDbLine
 10
200.791739
 20
56.449817
 30
0.0
 11
200.278985
 21
56.723570
 31
0.0
  0
LINE
  5
41f
100
AcDbEntity
  8
Layer_1
 62
7
100
AcDbLine
 10
200.278985
 20
56.723570
 30
0.0
 11
199.825249
 21
57.095604
 31
0.0
  0
LINE
  5
420
100
AcDbEntity
  8
Layer_1
 62
7
100
AcDbLine
 10
199.825249
 20
57.095604
 30
0.0
 11
199.453215
 21
57.549340
 31
0.0
  0
LINE
  5
421
100
AcDbEntity
  8
Layer_1
 62
7
100
AcDbLine
 10
199.453215
 20
57.549340
 30
0.0
 11
199.179461
 21
58.062095
 31
0.0
  0
LINE
  5
422
100
AcDbEntity
  8
Layer_1
 62
7
100
AcDbLine
 10
199.179461
 20
58.062095
 30
0.0
 11
199.010462
 21
58.618239
 31
0.0
  0
LINE
  5
423
100
AcDbEntity
  8
Layer_1
 62
7
100
AcDbLine
 10
199.010462
 20
58.618239
 30
0.0
 11
198.952691
 21
59.202147
 31
0.0
  0
LINE
  5
424
100
AcDbEntity
  8
Layer_1
 62
7
100
AcDbLine
 10
198.952691
 20
59.202147
 30
0.0
 11
199.010462
 21
59.786055
 31
0.0
  0
LINE
  5
425
100
AcDbEntity
  8
Layer_1
 62
7
100
AcDbLine
 10
199.010462
 20
59.786055
 30
0.0
 11
199.179461
 21
60.342200
 31
0.0
  0
LINE
  5
426
100
AcDbEntity
  8
Layer_1
 62
7
100
AcDbLine
 10
199.179461
 20
60.342200
 30
0.0
 11
199.453215
 21
60.854954
 31
0.0
  0
LINE
  5
427
100
AcDbEntity
  8
Layer_1
 62
7
100
AcDbLine
 10
199.453215
 20
60.854954
 30
0.0
 11
199.825249
 21
61.308690
 31
0.0
  0
LINE
  5
428
100
AcDbEntity
  8
Layer_1
 62
7
100
AcDbLine
 10
199.825249
 20
61.308690
 30
0.0
 11
200.278985
 21
61.680725
 31
0.0
  0
LINE
  5
429
100
AcDbEntity
  8
Layer_1
 62
7
100
AcDbLine
 10
200.278985
 20
61.680725
 30
0.0
 11
200.791739
 21
61.954478
 31
0.0
  0
LINE
  5
42a
100
AcDbEntity
  8
Layer_1
 62
7
100
AcDbLine
 10
200.791739
 20
61.954478
 30
0.0
 11
201.347884
 21
62.123477
 31
0.0
  0
LINE
  5
42b
100
AcDbEntity
  8
Layer_1
 62
7
100
AcDbLine
 10
201.347884
 20
62.123477
 30
0.0
 11
201.931792
 21
62.181248
 31
0.0
  0
LINE
  5
42c
100
AcDbEntity
  8
Layer_1
 62
7
100
AcDbLine
 10
201.931792
 20
62.181248
 30
0.0
 11
202.532184
 21
62.120723
 31
0.0
  0
LINE
  5
42d
100
AcDbEntity
  8
Layer_1
 62
7
100
AcDbLine
 10
202.532184
 20
62.120723
 30
0.0
 11
203.091392
 21
61.947135
 31
0.0
  0
LINE
  5
42e
100
AcDbEntity
  8
Layer_1
 62
7
100
AcDbLine
 10
203.091392
 20
61.947135
 30
0.0
 11
203.597435
 21
61.672464
 31
0.0
  0
LINE
  5
42f
100
AcDbEntity
  8
Layer_1
 62
7
100
AcDbLine
 10
203.597435
 20
61.672464
 30
0.0
 11
204.038333
 21
61.308689
 31
0.0
  0
LINE
  5
430
100
AcDbEntity
  8
Layer_1
 62
7
100
AcDbLine
 10
204.038333
 20
61.308689
 30
0.0
 11
204.402107
 21
60.867790
 31
0.0
  0
LINE
  5
431
100
AcDbEntity
  8
Layer_1
 62
7
100
AcDbLine
 10
204.402107
 20
60.867790
 30
0.0
 11
204.676778
 21
60.361747
 31
0.0
  0
LINE
  5
432
100
AcDbEntity
  8
Layer_1
 62
7
100
AcDbLine
 10
204.676778
 20
60.361747
 30
0.0
 11
204.850366
 21
59.802540
 31
0.0
  0
LINE
  5
433
100
AcDbEntity
  8
Layer_1
 62
7
100
AcDbLine
 10
204.850366
 20
59.802540
 30
0.0
 11
204.910890
 21
59.202147
 31
0.0
  0
LINE
  5
434
100
AcDbEntity
  8
Layer_1
 62
7
100
AcDbLine
 10
204.910890
 20
59.202147
 30
0.0
 11
204.910890
 21
59.202147
 31
0.0
  0
LINE
  5
435
100
AcDbEntity
  8
Layer_1
 62
7
100
AcDbLine
 10
219.828449
 20
59.202147
 30
0.0
 11
219.770677
 21
58.618239
 31
0.0
  0
LINE
  5
436
100
AcDbEntity
  8
Layer_1
 62
7
100
AcDbLine
 10
219.770677
 20
58.618239
 30
0.0
 11
219.601678
 21
58.062095
 31
0.0
  0
LINE
  5
437
100
AcDbEntity
  8
Layer_1
 62
7
100
AcDbLine
 10
219.601678
 20
58.062095
 30
0.0
 11
219.327925
 21
57.549340
 31
0.0
  0
LINE
  5
438
100
AcDbEntity
  8
Layer_1
 62
7
100
AcDbLine
 10
219.327925
 20
57.549340
 30
0.0
 11
218.955890
 21
57.095604
 31
0.0
  0
LINE
  5
439
100
AcDbEntity
  8
Layer_1
 62
7
100
AcDbLine
 10
218.955890
 20
57.095604
 30
0.0
 11
218.502154
 21
56.723570
 31
0.0
  0
LINE
  5
43a
100
AcDbEntity
  8
Layer_1
 62
7
100
AcDbLine
 10
218.502154
 20
56.723570
 30
0.0
 11
217.989400
 21
56.449817
 31
0.0
  0
LINE
  5
43b
100
AcDbEntity
  8
Layer_1
 62
7
100
AcDbLine
 10
217.989400
 20
56.449817
 30
0.0
 11
217.433255
 21
56.280818
 31
0.0
  0
LINE
  5
43c
100
AcDbEntity
  8
Layer_1
 62
7
100
AcDbLine
 10
217.433255
 20
56.280818
 30
0.0
 11
216.849348
 21
56.223046
 31
0.0
  0
LINE
  5
43d
100
AcDbEntity
  8
Layer_1
 62
7
100
AcDbLine
 10
216.849348
 20
56.223046
 30
0.0
 11
216.265440
 21
56.280818
 31
0.0
  0
LINE
  5
43e
100
AcDbEntity
  8
Layer_1
 62
7
100
AcDbLine
 10
216.265440
 20
56.280818
 30
0.0
 11
215.709295
 21
56.449817
 31
0.0
  0
LINE
  5
43f
100
AcDbEntity
  8
Layer_1
 62
7
100
AcDbLine
 10
215.709295
 20
56.449817
 30
0.0
 11
215.196541
 21
56.723570
 31
0.0
  0
LINE
  5
440
100
AcDbEntity
  8
Layer_1
 62
7
100
AcDbLine
 10
215.196541
 20
56.723570
 30
0.0
 11
214.742805
 21
57.095604
 31
0.0
  0
LINE
  5
441
100
AcDbEntity
  8
Layer_1
 62
7
100
AcDbLine
 10
214.742805
 20
57.095604
 30
0.0
 11
214.370770
 21
57.549340
 31
0.0
  0
LINE
  5
442
100
AcDbEntity
  8
Layer_1
 62
7
100
AcDbLine
 10
214.370770
 20
57.549340
 30
0.0
 11
214.097017
 21
58.062095
 31
0.0
  0
LINE
  5
443
100
AcDbEntity
  8
Layer_1
 62
7
100
AcDbLine
 10
214.097017
 20
58.062095
 30
0.0
 11
213.928018
 21
58.618239
 31
0.0
  0
LINE
  5
444
100
AcDbEntity
  8
Layer_1
 62
7
100
AcDbLine
 10
213.928018
 20
58.618239
 30
0.0
 11
213.870246
 21
59.202147
 31
0.0
  0
LINE
  5
445
100
AcDbEntity
  8
Layer_1
 62
7
100
AcDbLine
 10
213.870246
 20
59.202147
 30
0.0
 11
213.928018
 21
59.786055
 31
0.0
  0
LINE
  5
446
100
AcDbEntity
  8
Layer_1
 62
7
100
AcDbLine
 10
213.928018
 20
59.786055
 30
0.0
 11
214.097017
 21
60.342200
 31
0.0
  0
LINE
  5
447
100
AcDbEntity
  8
Layer_1
 62
7
100
AcDbLine
 10
214.097017
 20
60.342200
 30
0.0
 11
214.370770
 21
60.854954
 31
0.0
  0
LINE
  5
448
100
AcDbEntity
  8
Layer_1
 62
7
100
AcDbLine
 10
214.370770
 20
60.854954
 30
0.0
 11
214.742805
 21
61.308690
 31
0.0
  0
LINE
  5
449
100
AcDbEntity
  8
Layer_1
 62
7
100
AcDbLine
 10
214.742805
 20
61.308690
 30
0.0
 11
215.196541
 21
61.680725
 31
0.0
  0
LINE
  5
44a
100
AcDbEntity
  8
Layer_1
 62
7
100
AcDbLine
 10
215.196541
 20
61.680725
 30
0.0
 11
215.709295
 21
61.954478
 31
0.0
  0
LINE
  5
44b
100
AcDbEntity
  8
Layer_1
 62
7
100
AcDbLine
 10
215.709295
 20
61.954478
 30
0.0
 11
216.265440
 21
62.123477
 31
0.0
  0
LINE
  5
44c
100
AcDbEntity
  8
Layer_1
 62
7
100
AcDbLine
 10
216.265440
 20
62.123477
 30
0.0
 11
216.849348
 21
62.181248
 31
0.0
  0
LINE
  5
44d
100
AcDbEntity
  8
Layer_1
 62
7
100
AcDbLine
 10
216.849348
 20
62.181248
 30
0.0
 11
217.433255
 21
62.123477
 31
0.0
  0
LINE
  5
44e
100
AcDbEntity
  8
Layer_1
 62
7
100
AcDbLine
 10
217.433255
 20
62.123477
 30
0.0
 11
217.989400
 21
61.954478
 31
0.0
  0
LINE
  5
44f
100
AcDbEntity
  8
Layer_1
 62
7
100
AcDbLine
 10
217.989400
 20
61.954478
 30
0.0
 11
218.502154
 21
61.680725
 31
0.0
  0
LINE
  5
450
100
AcDbEntity
  8
Layer_1
 62
7
100
AcDbLine
 10
218.502154
 20
61.680725
 30
0.0
 11
218.955890
 21
61.308690
 31
0.0
  0
LINE
  5
451
100
AcDbEntity
  8
Layer_1
 62
7
100
AcDbLine
 10
218.955890
 20
61.308690
 30
0.0
 11
219.327925
 21
60.854954
 31
0.0
  0
LINE
  5
452
100
AcDbEntity
  8
Layer_1
 62
7
100
AcDbLine
 10
219.327925
 20
60.854954
 30
0.0
 11
219.601678
 21
60.342200
 31
0.0
  0
LINE
  5
453
100
AcDbEntity
  8
Layer_1
 62
7
100
AcDbLine
 10
219.601678
 20
60.342200
 30
0.0
 11
219.770677
 21
59.786055
 31
0.0
  0
LINE
  5
454
100
AcDbEntity
  8
Layer_1
 62
7
100
AcDbLine
 10
219.770677
 20
59.786055
 30
0.0
 11
219.828449
 21
59.202147
 31
0.0
  0
LINE
  5
455
100
AcDbEntity
  8
Layer_1
 62
7
100
AcDbLine
 10
219.828449
 20
59.202147
 30
0.0
 11
219.828449
 21
59.202147
 31
0.0
  0
LINE
  5
456
100
AcDbEntity
  8
Layer_1
 62
7
100
AcDbLine
 10
204.910890
 20
43.237248
 30
0.0
 11
204.850366
 21
42.636856
 31
0.0
  0
LINE
  5
457
100
AcDbEntity
  8
Layer_1
 62
7
100
AcDbLine
 10
204.850366
 20
42.636856
 30
0.0
 11
204.676778
 21
42.077648
 31
0.0
  0
LINE
  5
458
100
AcDbEntity
  8
Layer_1
 62
7
100
AcDbLine
 10
204.676778
 20
42.077648
 30
0.0
 11
204.402107
 21
41.571605
 31
0.0
  0
LINE
  5
459
100
AcDbEntity
  8
Layer_1
 62
7
100
AcDbLine
 10
204.402107
 20
41.571605
 30
0.0
 11
204.038333
 21
41.130706
 31
0.0
  0
LINE
  5
45a
100
AcDbEntity
  8
Layer_1
 62
7
100
AcDbLine
 10
204.038333
 20
41.130706
 30
0.0
 11
203.597435
 21
40.766932
 31
0.0
  0
LINE
  5
45b
100
AcDbEntity
  8
Layer_1
 62
7
100
AcDbLine
 10
203.597435
 20
40.766932
 30
0.0
 11
203.091392
 21
40.492260
 31
0.0
  0
LINE
  5
45c
100
AcDbEntity
  8
Layer_1
 62
7
100
AcDbLine
 10
203.091392
 20
40.492260
 30
0.0
 11
202.532184
 21
40.318672
 31
0.0
  0
LINE
  5
45d
100
AcDbEntity
  8
Layer_1
 62
7
100
AcDbLine
 10
202.532184
 20
40.318672
 30
0.0
 11
201.931792
 21
40.258147
 31
0.0
  0
LINE
  5
45e
100
AcDbEntity
  8
Layer_1
 62
7
100
AcDbLine
 10
201.931792
 20
40.258147
 30
0.0
 11
201.347884
 21
40.315919
 31
0.0
  0
LINE
  5
45f
100
AcDbEntity
  8
Layer_1
 62
7
100
AcDbLine
 10
201.347884
 20
40.315919
 30
0.0
 11
200.791739
 21
40.484918
 31
0.0
  0
LINE
  5
460
100
AcDbEntity
  8
Layer_1
 62
7
100
AcDbLine
 10
200.791739
 20
40.484918
 30
0.0
 11
200.278985
 21
40.758671
 31
0.0
  0
LINE
  5
461
100
AcDbEntity
  8
Layer_1
 62
7
100
AcDbLine
 10
200.278985
 20
40.758671
 30
0.0
 11
199.825249
 21
41.130705
 31
0.0
  0
LINE
  5
462
100
AcDbEntity
  8
Layer_1
 62
7
100
AcDbLine
 10
199.825249
 20
41.130705
 30
0.0
 11
199.453215
 21
41.584441
 31
0.0
  0
LINE
  5
463
100
AcDbEntity
  8
Layer_1
 62
7
100
AcDbLine
 10
199.453215
 20
41.584441
 30
0.0
 11
199.179461
 21
42.097195
 31
0.0
  0
LINE
  5
464
100
AcDbEntity
  8
Layer_1
 62
7
100
AcDbLine
 10
199.179461
 20
42.097195
 30
0.0
 11
199.010462
 21
42.653340
 31
0.0
  0
LINE
  5
465
100
AcDbEntity
  8
Layer_1
 62
7
100
AcDbLine
 10
199.010462
 20
42.653340
 30
0.0
 11
198.952691
 21
43.237248
 31
0.0
  0
LINE
  5
466
100
AcDbEntity
  8
Layer_1
 62
7
100
AcDbLine
 10
198.952691
 20
43.237248
 30
0.0
 11
199.010462
 21
43.821156
 31
0.0
  0
LINE
  5
467
100
AcDbEntity
  8
Layer_1
 62
7
100
AcDbLine
 10
199.010462
 20
43.821156
 30
0.0
 11
199.179461
 21
44.377301
 31
0.0
  0
LINE
  5
468
100
AcDbEntity
  8
Layer_1
 62
7
100
AcDbLine
 10
199.179461
 20
44.377301
 30
0.0
 11
199.453215
 21
44.890055
 31
0.0
  0
LINE
  5
469
100
AcDbEntity
  8
Layer_1
 62
7
100
AcDbLine
 10
199.453215
 20
44.890055
 30
0.0
 11
199.825249
 21
45.343791
 31
0.0
  0
LINE
  5
46a
100
AcDbEntity
  8
Layer_1
 62
7
100
AcDbLine
 10
199.825249
 20
45.343791
 30
0.0
 11
200.278985
 21
45.715826
 31
0.0
  0
LINE
  5
46b
100
AcDbEntity
  8
Layer_1
 62
7
100
AcDbLine
 10
200.278985
 20
45.715826
 30
0.0
 11
200.791739
 21
45.989579
 31
0.0
  0
LINE
  5
46c
100
AcDbEntity
  8
Layer_1
 62
7
100
AcDbLine
 10
200.791739
 20
45.989579
 30
0.0
 11
201.347884
 21
46.158578
 31
0.0
  0
LINE
  5
46d
100
AcDbEntity
  8
Layer_1
 62
7
100
AcDbLine
 10
201.347884
 20
46.158578
 30
0.0
 11
201.931792
 21
46.216349
 31
0.0
  0
LINE
  5
46e
100
AcDbEntity
  8
Layer_1
 62
7
100
AcDbLine
 10
201.931792
 20
46.216349
 30
0.0
 11
202.532184
 21
46.155824
 31
0.0
  0
LINE
  5
46f
100
AcDbEntity
  8
Layer_1
 62
7
100
AcDbLine
 10
202.532184
 20
46.155824
 30
0.0
 11
203.091392
 21
45.982236
 31
0.0
  0
LINE
  5
470
100
AcDbEntity
  8
Layer_1
 62
7
100
AcDbLine
 10
203.091392
 20
45.982236
 30
0.0
 11
203.597435
 21
45.707565
 31
0.0
  0
LINE
  5
471
100
AcDbEntity
  8
Layer_1
 62
7
100
AcDbLine
 10
203.597435
 20
45.707565
 30
0.0
 11
204.038333
 21
45.343790
 31
0.0
  0
LINE
  5
472
100
AcDbEntity
  8
Layer_1
 62
7
100
AcDbLine
 10
204.038333
 20
45.343790
 30
0.0
 11
204.402107
 21
44.902891
 31
0.0
  0
LINE
  5
473
100
AcDbEntity
  8
Layer_1
 62
7
100
AcDbLine
 10
204.402107
 20
44.902891
 30
0.0
 11
204.676778
 21
44.396848
 31
0.0
  0
LINE
  5
474
100
AcDbEntity
  8
Layer_1
 62
7
100
AcDbLine
 10
204.676778
 20
44.396848
 30
0.0
 11
204.850366
 21
43.837641
 31
0.0
  0
LINE
  5
475
100
AcDbEntity
  8
Layer_1
 62
7
100
AcDbLine
 10
204.850366
 20
43.837641
 30
0.0
 11
204.910890
 21
43.237248
 31
0.0
  0
LINE
  5
476
100
AcDbEntity
  8
Layer_1
 62
7
100
AcDbLine
 10
204.910890
 20
43.237248
 30
0.0
 11
204.910890
 21
43.237248
 31
0.0
  0
LINE
  5
477
100
AcDbEntity
  8
Layer_1
 62
7
100
AcDbLine
 10
219.828449
 20
43.237248
 30
0.0
 11
219.770677
 21
42.653340
 31
0.0
  0
LINE
  5
478
100
AcDbEntity
  8
Layer_1
 62
7
100
AcDbLine
 10
219.770677
 20
42.653340
 30
0.0
 11
219.601678
 21
42.097195
 31
0.0
  0
LINE
  5
479
100
AcDbEntity
  8
Layer_1
 62
7
100
AcDbLine
 10
219.601678
 20
42.097195
 30
0.0
 11
219.327925
 21
41.584441
 31
0.0
  0
LINE
  5
47a
100
AcDbEntity
  8
Layer_1
 62
7
100
AcDbLine
 10
219.327925
 20
41.584441
 30
0.0
 11
218.955890
 21
41.130705
 31
0.0
  0
LINE
  5
47b
100
AcDbEntity
  8
Layer_1
 62
7
100
AcDbLine
 10
218.955890
 20
41.130705
 30
0.0
 11
218.502154
 21
40.758671
 31
0.0
  0
LINE
  5
47c
100
AcDbEntity
  8
Layer_1
 62
7
100
AcDbLine
 10
218.502154
 20
40.758671
 30
0.0
 11
217.989400
 21
40.484918
 31
0.0
  0
LINE
  5
47d
100
AcDbEntity
  8
Layer_1
 62
7
100
AcDbLine
 10
217.989400
 20
40.484918
 30
0.0
 11
217.433255
 21
40.315919
 31
0.0
  0
LINE
  5
47e
100
AcDbEntity
  8
Layer_1
 62
7
100
AcDbLine
 10
217.433255
 20
40.315919
 30
0.0
 11
216.849348
 21
40.258147
 31
0.0
  0
LINE
  5
47f
100
AcDbEntity
  8
Layer_1
 62
7
100
AcDbLine
 10
216.849348
 20
40.258147
 30
0.0
 11
216.265440
 21
40.315919
 31
0.0
  0
LINE
  5
480
100
AcDbEntity
  8
Layer_1
 62
7
100
AcDbLine
 10
216.265440
 20
40.315919
 30
0.0
 11
215.709295
 21
40.484918
 31
0.0
  0
LINE
  5
481
100
AcDbEntity
  8
Layer_1
 62
7
100
AcDbLine
 10
215.709295
 20
40.484918
 30
0.0
 11
215.196541
 21
40.758671
 31
0.0
  0
LINE
  5
482
100
AcDbEntity
  8
Layer_1
 62
7
100
AcDbLine
 10
215.196541
 20
40.758671
 30
0.0
 11
214.742805
 21
41.130705
 31
0.0
  0
LINE
  5
483
100
AcDbEntity
  8
Layer_1
 62
7
100
AcDbLine
 10
214.742805
 20
41.130705
 30
0.0
 11
214.370770
 21
41.584441
 31
0.0
  0
LINE
  5
484
100
AcDbEntity
  8
Layer_1
 62
7
100
AcDbLine
 10
214.370770
 20
41.584441
 30
0.0
 11
214.097017
 21
42.097195
 31
0.0
  0
LINE
  5
485
100
AcDbEntity
  8
Layer_1
 62
7
100
AcDbLine
 10
214.097017
 20
42.097195
 30
0.0
 11
213.928018
 21
42.653340
 31
0.0
  0
LINE
  5
486
100
AcDbEntity
  8
Layer_1
 62
7
100
AcDbLine
 10
213.928018
 20
42.653340
 30
0.0
 11
213.870246
 21
43.237248
 31
0.0
  0
LINE
  5
487
100
AcDbEntity
  8
Layer_1
 62
7
100
AcDbLine
 10
213.870246
 20
43.237248
 30
0.0
 11
213.928018
 21
43.821156
 31
0.0
  0
LINE
  5
488
100
AcDbEntity
  8
Layer_1
 62
7
100
AcDbLine
 10
213.928018
 20
43.821156
 30
0.0
 11
214.097017
 21
44.377301
 31
0.0
  0
LINE
  5
489
100
AcDbEntity
  8
Layer_1
 62
7
100
AcDbLine
 10
214.097017
 20
44.377301
 30
0.0
 11
214.370770
 21
44.890055
 31
0.0
  0
LINE
  5
48a
100
AcDbEntity
  8
Layer_1
 62
7
100
AcDbLine
 10
214.370770
 20
44.890055
 30
0.0
 11
214.742805
 21
45.343791
 31
0.0
  0
LINE
  5
48b
100
AcDbEntity
  8
Layer_1
 62
7
100
AcDbLine
 10
214.742805
 20
45.343791
 30
0.0
 11
215.196541
 21
45.715826
 31
0.0
  0
LINE
  5
48c
100
AcDbEntity
  8
Layer_1
 62
7
100
AcDbLine
 10
215.196541
 20
45.715826
 30
0.0
 11
215.709295
 21
45.989579
 31
0.0
  0
LINE
  5
48d
100
AcDbEntity
  8
Layer_1
 62
7
100
AcDbLine
 10
215.709295
 20
45.989579
 30
0.0
 11
216.265440
 21
46.158578
 31
0.0
  0
LINE
  5
48e
100
AcDbEntity
  8
Layer_1
 62
7
100
AcDbLine
 10
216.265440
 20
46.158578
 30
0.0
 11
216.849348
 21
46.216349
 31
0.0
  0
LINE
  5
48f
100
AcDbEntity
  8
Layer_1
 62
7
100
AcDbLine
 10
216.849348
 20
46.216349
 30
0.0
 11
217.433255
 21
46.158578
 31
0.0
  0
LINE
  5
490
100
AcDbEntity
  8
Layer_1
 62
7
100
AcDbLine
 10
217.433255
 20
46.158578
 30
0.0
 11
217.989400
 21
45.989579
 31
0.0
  0
LINE
  5
491
100
AcDbEntity
  8
Layer_1
 62
7
100
AcDbLine
 10
217.989400
 20
45.989579
 30
0.0
 11
218.502154
 21
45.715826
 31
0.0
  0
LINE
  5
492
100
AcDbEntity
  8
Layer_1
 62
7
100
AcDbLine
 10
218.502154
 20
45.715826
 30
0.0
 11
218.955890
 21
45.343791
 31
0.0
  0
LINE
  5
493
100
AcDbEntity
  8
Layer_1
 62
7
100
AcDbLine
 10
218.955890
 20
45.343791
 30
0.0
 11
219.327925
 21
44.890055
 31
0.0
  0
LINE
  5
494
100
AcDbEntity
  8
Layer_1
 62
7
100
AcDbLine
 10
219.327925
 20
44.890055
 30
0.0
 11
219.601678
 21
44.377301
 31
0.0
  0
LINE
  5
495
100
AcDbEntity
  8
Layer_1
 62
7
100
AcDbLine
 10
219.601678
 20
44.377301
 30
0.0
 11
219.770677
 21
43.821156
 31
0.0
  0
LINE
  5
496
100
AcDbEntity
  8
Layer_1
 62
7
100
AcDbLine
 10
219.770677
 20
43.821156
 30
0.0
 11
219.828449
 21
43.237248
 31
0.0
  0
LINE
  5
497
100
AcDbEntity
  8
Layer_1
 62
7
100
AcDbLine
 10
219.828449
 20
43.237248
 30
0.0
 11
219.828449
 21
43.237248
 31
0.0
  0
LINE
  5
498
100
AcDbEntity
  8
Layer_1
 62
7
100
AcDbLine
 10
204.910890
 20
29.267954
 30
0.0
 11
204.850366
 21
28.667561
 31
0.0
  0
LINE
  5
499
100
AcDbEntity
  8
Layer_1
 62
7
100
AcDbLine
 10
204.850366
 20
28.667561
 30
0.0
 11
204.676778
 21
28.108354
 31
0.0
  0
LINE
  5
49a
100
AcDbEntity
  8
Layer_1
 62
7
100
AcDbLine
 10
204.676778
 20
28.108354
 30
0.0
 11
204.402107
 21
27.602311
 31
0.0
  0
LINE
  5
49b
100
AcDbEntity
  8
Layer_1
 62
7
100
AcDbLine
 10
204.402107
 20
27.602311
 30
0.0
 11
204.038333
 21
27.161412
 31
0.0
  0
LINE
  5
49c
100
AcDbEntity
  8
Layer_1
 62
7
100
AcDbLine
 10
204.038333
 20
27.161412
 30
0.0
 11
203.597435
 21
26.797637
 31
0.0
  0
LINE
  5
49d
100
AcDbEntity
  8
Layer_1
 62
7
100
AcDbLine
 10
203.597435
 20
26.797637
 30
0.0
 11
203.091392
 21
26.522966
 31
0.0
  0
LINE
  5
49e
100
AcDbEntity
  8
Layer_1
 62
7
100
AcDbLine
 10
203.091392
 20
26.522966
 30
0.0
 11
202.532184
 21
26.349378
 31
0.0
  0
LINE
  5
49f
100
AcDbEntity
  8
Layer_1
 62
7
100
AcDbLine
 10
202.532184
 20
26.349378
 30
0.0
 11
201.931792
 21
26.288853
 31
0.0
  0
LINE
  5
4a0
100
AcDbEntity
  8
Layer_1
 62
7
100
AcDbLine
 10
201.931792
 20
26.288853
 30
0.0
 11
201.347884
 21
26.346624
 31
0.0
  0
LINE
  5
4a1
100
AcDbEntity
  8
Layer_1
 62
7
100
AcDbLine
 10
201.347884
 20
26.346624
 30
0.0
 11
200.791739
 21
26.515623
 31
0.0
  0
LINE
  5
4a2
100
AcDbEntity
  8
Layer_1
 62
7
100
AcDbLine
 10
200.791739
 20
26.515623
 30
0.0
 11
200.278985
 21
26.789376
 31
0.0
  0
LINE
  5
4a3
100
AcDbEntity
  8
Layer_1
 62
7
100
AcDbLine
 10
200.278985
 20
26.789376
 30
0.0
 11
199.825249
 21
27.161411
 31
0.0
  0
LINE
  5
4a4
100
AcDbEntity
  8
Layer_1
 62
7
100
AcDbLine
 10
199.825249
 20
27.161411
 30
0.0
 11
199.453215
 21
27.615147
 31
0.0
  0
LINE
  5
4a5
100
AcDbEntity
  8
Layer_1
 62
7
100
AcDbLine
 10
199.453215
 20
27.615147
 30
0.0
 11
199.179461
 21
28.127901
 31
0.0
  0
LINE
  5
4a6
100
AcDbEntity
  8
Layer_1
 62
7
100
AcDbLine
 10
199.179461
 20
28.127901
 30
0.0
 11
199.010462
 21
28.684046
 31
0.0
  0
LINE
  5
4a7
100
AcDbEntity
  8
Layer_1
 62
7
100
AcDbLine
 10
199.010462
 20
28.684046
 30
0.0
 11
198.952691
 21
29.267954
 31
0.0
  0
LINE
  5
4a8
100
AcDbEntity
  8
Layer_1
 62
7
100
AcDbLine
 10
198.952691
 20
29.267954
 30
0.0
 11
199.010462
 21
29.851862
 31
0.0
  0
LINE
  5
4a9
100
AcDbEntity
  8
Layer_1
 62
7
100
AcDbLine
 10
199.010462
 20
29.851862
 30
0.0
 11
199.179461
 21
30.408007
 31
0.0
  0
LINE
  5
4aa
100
AcDbEntity
  8
Layer_1
 62
7
100
AcDbLine
 10
199.179461
 20
30.408007
 30
0.0
 11
199.453215
 21
30.920761
 31
0.0
  0
LINE
  5
4ab
100
AcDbEntity
  8
Layer_1
 62
7
100
AcDbLine
 10
199.453215
 20
30.920761
 30
0.0
 11
199.825249
 21
31.374497
 31
0.0
  0
LINE
  5
4ac
100
AcDbEntity
  8
Layer_1
 62
7
100
AcDbLine
 10
199.825249
 20
31.374497
 30
0.0
 11
200.278985
 21
31.746531
 31
0.0
  0
LINE
  5
4ad
100
AcDbEntity
  8
Layer_1
 62
7
100
AcDbLine
 10
200.278985
 20
31.746531
 30
0.0
 11
200.791739
 21
32.020285
 31
0.0
  0
LINE
  5
4ae
100
AcDbEntity
  8
Layer_1
 62
7
100
AcDbLine
 10
200.791739
 20
32.020285
 30
0.0
 11
201.347884
 21
32.189284
 31
0.0
  0
LINE
  5
4af
100
AcDbEntity
  8
Layer_1
 62
7
100
AcDbLine
 10
201.347884
 20
32.189284
 30
0.0
 11
201.931792
 21
32.247055
 31
0.0
  0
LINE
  5
4b0
100
AcDbEntity
  8
Layer_1
 62
7
100
AcDbLine
 10
201.931792
 20
32.247055
 30
0.0
 11
202.532184
 21
32.186530
 31
0.0
  0
LINE
  5
4b1
100
AcDbEntity
  8
Layer_1
 62
7
100
AcDbLine
 10
202.532184
 20
32.186530
 30
0.0
 11
203.091392
 21
32.012942
 31
0.0
  0
LINE
  5
4b2
100
AcDbEntity
  8
Layer_1
 62
7
100
AcDbLine
 10
203.091392
 20
32.012942
 30
0.0
 11
203.597435
 21
31.738271
 31
0.0
  0
LINE
  5
4b3
100
AcDbEntity
  8
Layer_1
 62
7
100
AcDbLine
 10
203.597435
 20
31.738271
 30
0.0
 11
204.038333
 21
31.374496
 31
0.0
  0
LINE
  5
4b4
100
AcDbEntity
  8
Layer_1
 62
7
100
AcDbLine
 10
204.038333
 20
31.374496
 30
0.0
 11
204.402107
 21
30.933597
 31
0.0
  0
LINE
  5
4b5
100
AcDbEntity
  8
Layer_1
 62
7
100
AcDbLine
 10
204.402107
 20
30.933597
 30
0.0
 11
204.676778
 21
30.427554
 31
0.0
  0
LINE
  5
4b6
100
AcDbEntity
  8
Layer_1
 62
7
100
AcDbLine
 10
204.676778
 20
30.427554
 30
0.0
 11
204.850366
 21
29.868346
 31
0.0
  0
LINE
  5
4b7
100
AcDbEntity
  8
Layer_1
 62
7
100
AcDbLine
 10
204.850366
 20
29.868346
 30
0.0
 11
204.910890
 21
29.267954
 31
0.0
  0
LINE
  5
4b8
100
AcDbEntity
  8
Layer_1
 62
7
100
AcDbLine
 10
204.910890
 20
29.267954
 30
0.0
 11
204.910890
 21
29.267954
 31
0.0
  0
LINE
  5
4b9
100
AcDbEntity
  8
Layer_1
 62
7
100
AcDbLine
 10
219.828449
 20
29.267954
 30
0.0
 11
219.770677
 21
28.684046
 31
0.0
  0
LINE
  5
4ba
100
AcDbEntity
  8
Layer_1
 62
7
100
AcDbLine
 10
219.770677
 20
28.684046
 30
0.0
 11
219.601678
 21
28.127901
 31
0.0
  0
LINE
  5
4bb
100
AcDbEntity
  8
Layer_1
 62
7
100
AcDbLine
 10
219.601678
 20
28.127901
 30
0.0
 11
219.327925
 21
27.615147
 31
0.0
  0
LINE
  5
4bc
100
AcDbEntity
  8
Layer_1
 62
7
100
AcDbLine
 10
219.327925
 20
27.615147
 30
0.0
 11
218.955890
 21
27.161411
 31
0.0
  0
LINE
  5
4bd
100
AcDbEntity
  8
Layer_1
 62
7
100
AcDbLine
 10
218.955890
 20
27.161411
 30
0.0
 11
218.502154
 21
26.789376
 31
0.0
  0
LINE
  5
4be
100
AcDbEntity
  8
Layer_1
 62
7
100
AcDbLine
 10
218.502154
 20
26.789376
 30
0.0
 11
217.989400
 21
26.515623
 31
0.0
  0
LINE
  5
4bf
100
AcDbEntity
  8
Layer_1
 62
7
100
AcDbLine
 10
217.989400
 20
26.515623
 30
0.0
 11
217.433255
 21
26.346624
 31
0.0
  0
LINE
  5
4c0
100
AcDbEntity
  8
Layer_1
 62
7
100
AcDbLine
 10
217.433255
 20
26.346624
 30
0.0
 11
216.849348
 21
26.288853
 31
0.0
  0
LINE
  5
4c1
100
AcDbEntity
  8
Layer_1
 62
7
100
AcDbLine
 10
216.849348
 20
26.288853
 30
0.0
 11
216.265440
 21
26.346624
 31
0.0
  0
LINE
  5
4c2
100
AcDbEntity
  8
Layer_1
 62
7
100
AcDbLine
 10
216.265440
 20
26.346624
 30
0.0
 11
215.709295
 21
26.515623
 31
0.0
  0
LINE
  5
4c3
100
AcDbEntity
  8
Layer_1
 62
7
100
AcDbLine
 10
215.709295
 20
26.515623
 30
0.0
 11
215.196541
 21
26.789376
 31
0.0
  0
LINE
  5
4c4
100
AcDbEntity
  8
Layer_1
 62
7
100
AcDbLine
 10
215.196541
 20
26.789376
 30
0.0
 11
214.742805
 21
27.161411
 31
0.0
  0
LINE
  5
4c5
100
AcDbEntity
  8
Layer_1
 62
7
100
AcDbLine
 10
214.742805
 20
27.161411
 30
0.0
 11
214.370770
 21
27.615147
 31
0.0
  0
LINE
  5
4c6
100
AcDbEntity
  8
Layer_1
 62
7
100
AcDbLine
 10
214.370770
 20
27.615147
 30
0.0
 11
214.097017
 21
28.127901
 31
0.0
  0
LINE
  5
4c7
100
AcDbEntity
  8
Layer_1
 62
7
100
AcDbLine
 10
214.097017
 20
28.127901
 30
0.0
 11
213.928018
 21
28.684046
 31
0.0
  0
LINE
  5
4c8
100
AcDbEntity
  8
Layer_1
 62
7
100
AcDbLine
 10
213.928018
 20
28.684046
 30
0.0
 11
213.870246
 21
29.267954
 31
0.0
  0
LINE
  5
4c9
100
AcDbEntity
  8
Layer_1
 62
7
100
AcDbLine
 10
213.870246
 20
29.267954
 30
0.0
 11
213.928018
 21
29.851862
 31
0.0
  0
LINE
  5
4ca
100
AcDbEntity
  8
Layer_1
 62
7
100
AcDbLine
 10
213.928018
 20
29.851862
 30
0.0
 11
214.097017
 21
30.408007
 31
0.0
  0
LINE
  5
4cb
100
AcDbEntity
  8
Layer_1
 62
7
100
AcDbLine
 10
214.097017
 20
30.408007
 30
0.0
 11
214.370770
 21
30.920761
 31
0.0
  0
LINE
  5
4cc
100
AcDbEntity
  8
Layer_1
 62
7
100
AcDbLine
 10
214.370770
 20
30.920761
 30
0.0
 11
214.742805
 21
31.374497
 31
0.0
  0
LINE
  5
4cd
100
AcDbEntity
  8
Layer_1
 62
7
100
AcDbLine
 10
214.742805
 20
31.374497
 30
0.0
 11
215.196541
 21
31.746531
 31
0.0
  0
LINE
  5
4ce
100
AcDbEntity
  8
Layer_1
 62
7
100
AcDbLine
 10
215.196541
 20
31.746531
 30
0.0
 11
215.709295
 21
32.020285
 31
0.0
  0
LINE
  5
4cf
100
AcDbEntity
  8
Layer_1
 62
7
100
AcDbLine
 10
215.709295
 20
32.020285
 30
0.0
 11
216.265440
 21
32.189284
 31
0.0
  0
LINE
  5
4d0
100
AcDbEntity
  8
Layer_1
 62
7
100
AcDbLine
 10
216.265440
 20
32.189284
 30
0.0
 11
216.849348
 21
32.247055
 31
0.0
  0
LINE
  5
4d1
100
AcDbEntity
  8
Layer_1
 62
7
100
AcDbLine
 10
216.849348
 20
32.247055
 30
0.0
 11
217.433255
 21
32.189284
 31
0.0
  0
LINE
  5
4d2
100
AcDbEntity
  8
Layer_1
 62
7
100
AcDbLine
 10
217.433255
 20
32.189284
 30
0.0
 11
217.989400
 21
32.020285
 31
0.0
  0
LINE
  5
4d3
100
AcDbEntity
  8
Layer_1
 62
7
100
AcDbLine
 10
217.989400
 20
32.020285
 30
0.0
 11
218.502154
 21
31.746531
 31
0.0
  0
LINE
  5
4d4
100
AcDbEntity
  8
Layer_1
 62
7
100
AcDbLine
 10
218.502154
 20
31.746531
 30
0.0
 11
218.955890
 21
31.374497
 31
0.0
  0
LINE
  5
4d5
100
AcDbEntity
  8
Layer_1
 62
7
100
AcDbLine
 10
218.955890
 20
31.374497
 30
0.0
 11
219.327925
 21
30.920761
 31
0.0
  0
LINE
  5
4d6
100
AcDbEntity
  8
Layer_1
 62
7
100
AcDbLine
 10
219.327925
 20
30.920761
 30
0.0
 11
219.601678
 21
30.408007
 31
0.0
  0
LINE
  5
4d7
100
AcDbEntity
  8
Layer_1
 62
7
100
AcDbLine
 10
219.601678
 20
30.408007
 30
0.0
 11
219.770677
 21
29.851862
 31
0.0
  0
LINE
  5
4d8
100
AcDbEntity
  8
Layer_1
 62
7
100
AcDbLine
 10
219.770677
 20
29.851862
 30
0.0
 11
219.828449
 21
29.267954
 31
0.0
  0
LINE
  5
4d9
100
AcDbEntity
  8
Layer_1
 62
7
100
AcDbLine
 10
219.828449
 20
29.267954
 30
0.0
 11
219.828449
 21
29.267954
 31
0.0
  0
LINE
  5
4da
100
AcDbEntity
  8
Layer_1
 62
7
100
AcDbLine
 10
54.605123
 20
63.868768
 30
0.0
 11
54.129868
 21
63.774244
 31
0.0
  0
LINE
  5
4db
100
AcDbEntity
  8
Layer_1
 62
7
100
AcDbLine
 10
54.129868
 20
63.774244
 30
0.0
 11
53.726966
 21
63.505037
 31
0.0
  0
LINE
  5
4dc
100
AcDbEntity
  8
Layer_1
 62
7
100
AcDbLine
 10
53.726966
 20
63.505037
 30
0.0
 11
53.457760
 21
63.102135
 31
0.0
  0
LINE
  5
4dd
100
AcDbEntity
  8
Layer_1
 62
7
100
AcDbLine
 10
53.457760
 20
63.102135
 30
0.0
 11
53.363235
 21
62.626880
 31
0.0
  0
LINE
  5
4de
100
AcDbEntity
  8
Layer_1
 62
7
100
AcDbLine
 10
53.363235
 20
62.626880
 30
0.0
 11
53.393001
 21
62.362847
 31
0.0
  0
LINE
  5
4df
100
AcDbEntity
  8
Layer_1
 62
7
100
AcDbLine
 10
53.393001
 20
62.362847
 30
0.0
 11
53.393001
 21
58.828457
 31
0.0
  0
LINE
  5
4e0
100
AcDbEntity
  8
Layer_1
 62
7
100
AcDbLine
 10
53.393001
 20
58.828457
 30
0.0
 11
52.859247
 21
58.430163
 31
0.0
  0
LINE
  5
4e1
100
AcDbEntity
  8
Layer_1
 62
7
100
AcDbLine
 10
52.859247
 20
58.430163
 30
0.0
 11
52.455693
 21
57.914486
 31
0.0
  0
LINE
  5
4e2
100
AcDbEntity
  8
Layer_1
 62
7
100
AcDbLine
 10
52.455693
 20
57.914486
 30
0.0
 11
52.200122
 21
57.311607
 31
0.0
  0
LINE
  5
4e3
100
AcDbEntity
  8
Layer_1
 62
7
100
AcDbLine
 10
52.200122
 20
57.311607
 30
0.0
 11
52.110321
 21
56.651708
 31
0.0
  0
LINE
  5
4e4
100
AcDbEntity
  8
Layer_1
 62
7
100
AcDbLine
 10
52.110321
 20
56.651708
 30
0.0
 11
52.300308
 21
55.697113
 31
0.0
  0
LINE
  5
4e5
100
AcDbEntity
  8
Layer_1
 62
7
100
AcDbLine
 10
52.300308
 20
55.697113
 30
0.0
 11
52.841142
 21
54.887888
 31
0.0
  0
LINE
  5
4e6
100
AcDbEntity
  8
Layer_1
 62
7
100
AcDbLine
 10
52.841142
 20
54.887888
 30
0.0
 11
53.650486
 21
54.347232
 31
0.0
  0
LINE
  5
4e7
100
AcDbEntity
  8
Layer_1
 62
7
100
AcDbLine
 10
53.650486
 20
54.347232
 30
0.0
 11
54.605123
 21
54.157456
 31
0.0
  0
LINE
  5
4e8
100
AcDbEntity
  8
Layer_1
 62
7
100
AcDbLine
 10
54.605123
 20
54.157456
 30
0.0
 11
55.575952
 21
54.353538
 31
0.0
  0
LINE
  5
4e9
100
AcDbEntity
  8
Layer_1
 62
7
100
AcDbLine
 10
55.575952
 20
54.353538
 30
0.0
 11
56.368746
 21
54.888084
 31
0.0
  0
LINE
  5
4ea
100
AcDbEntity
  8
Layer_1
 62
7
100
AcDbLine
 10
56.368746
 20
54.888084
 30
0.0
 11
56.903292
 21
55.680879
 31
0.0
  0
LINE
  5
4eb
100
AcDbEntity
  8
Layer_1
 62
7
100
AcDbLine
 10
56.903292
 20
55.680879
 30
0.0
 11
57.099372
 21
56.651708
 31
0.0
  0
LINE
  5
4ec
100
AcDbEntity
  8
Layer_1
 62
7
100
AcDbLine
 10
57.099372
 20
56.651708
 30
0.0
 11
57.010114
 21
57.312386
 31
0.0
  0
LINE
  5
4ed
100
AcDbEntity
  8
Layer_1
 62
7
100
AcDbLine
 10
57.010114
 20
57.312386
 30
0.0
 11
56.754699
 21
57.916053
 31
0.0
  0
LINE
  5
4ee
100
AcDbEntity
  8
Layer_1
 62
7
100
AcDbLine
 10
56.754699
 20
57.916053
 30
0.0
 11
56.350952
 21
58.432423
 31
0.0
  0
LINE
  5
4ef
100
AcDbEntity
  8
Layer_1
 62
7
100
AcDbLine
 10
56.350952
 20
58.432423
 30
0.0
 11
55.816695
 21
58.831211
 31
0.0
  0
LINE
  5
4f0
100
AcDbEntity
  8
Layer_1
 62
7
100
AcDbLine
 10
55.816695
 20
58.831211
 30
0.0
 11
55.816695
 21
62.358989
 31
0.0
  0
LINE
  5
4f1
100
AcDbEntity
  8
Layer_1
 62
7
100
AcDbLine
 10
55.816695
 20
62.358989
 30
0.0
 11
55.846461
 21
62.626880
 31
0.0
  0
LINE
  5
4f2
100
AcDbEntity
  8
Layer_1
 62
7
100
AcDbLine
 10
55.846461
 20
62.626880
 30
0.0
 11
55.748932
 21
63.110151
 31
0.0
  0
LINE
  5
4f3
100
AcDbEntity
  8
Layer_1
 62
7
100
AcDbLine
 10
55.748932
 20
63.110151
 30
0.0
 11
55.482924
 21
63.504843
 31
0.0
  0
LINE
  5
4f4
100
AcDbEntity
  8
Layer_1
 62
7
100
AcDbLine
 10
55.482924
 20
63.504843
 30
0.0
 11
55.088351
 21
63.771025
 31
0.0
  0
LINE
  5
4f5
100
AcDbEntity
  8
Layer_1
 62
7
100
AcDbLine
 10
55.088351
 20
63.771025
 30
0.0
 11
54.605123
 21
63.868768
 31
0.0
  0
LINE
  5
4f6
100
AcDbEntity
  8
Layer_1
 62
7
100
AcDbLine
 10
54.605123
 20
63.868768
 30
0.0
 11
54.605123
 21
63.868768
 31
0.0
  0
LINE
  5
4f7
100
AcDbEntity
  8
Layer_1
 62
7
100
AcDbLine
 10
174.605123
 20
63.868768
 30
0.0
 11
174.129868
 21
63.774244
 31
0.0
  0
LINE
  5
4f8
100
AcDbEntity
  8
Layer_1
 62
7
100
AcDbLine
 10
174.129868
 20
63.774244
 30
0.0
 11
173.726966
 21
63.505037
 31
0.0
  0
LINE
  5
4f9
100
AcDbEntity
  8
Layer_1
 62
7
100
AcDbLine
 10
173.726966
 20
63.505037
 30
0.0
 11
173.457759
 21
63.102135
 31
0.0
  0
LINE
  5
4fa
100
AcDbEntity
  8
Layer_1
 62
7
100
AcDbLine
 10
173.457759
 20
63.102135
 30
0.0
 11
173.363235
 21
62.626880
 31
0.0
  0
LINE
  5
4fb
100
AcDbEntity
  8
Layer_1
 62
7
100
AcDbLine
 10
173.363235
 20
62.626880
 30
0.0
 11
173.393001
 21
62.362847
 31
0.0
  0
LINE
  5
4fc
100
AcDbEntity
  8
Layer_1
 62
7
100
AcDbLine
 10
173.393001
 20
62.362847
 30
0.0
 11
173.393001
 21
58.828457
 31
0.0
  0
LINE
  5
4fd
100
AcDbEntity
  8
Layer_1
 62
7
100
AcDbLine
 10
173.393001
 20
58.828457
 30
0.0
 11
172.859247
 21
58.430163
 31
0.0
  0
LINE
  5
4fe
100
AcDbEntity
  8
Layer_1
 62
7
100
AcDbLine
 10
172.859247
 20
58.430163
 30
0.0
 11
172.455693
 21
57.914486
 31
0.0
  0
LINE
  5
4ff
100
AcDbEntity
  8
Layer_1
 62
7
100
AcDbLine
 10
172.455693
 20
57.914486
 30
0.0
 11
172.200122
 21
57.311607
 31
0.0
  0
LINE
  5
500
100
AcDbEntity
  8
Layer_1
 62
7
100
AcDbLine
 10
172.200122
 20
57.311607
 30
0.0
 11
172.110321
 21
56.651708
 31
0.0
  0
LINE
  5
501
100
AcDbEntity
  8
Layer_1
 62
7
100
AcDbLine
 10
172.110321
 20
56.651708
 30
0.0
 11
172.300308
 21
55.697113
 31
0.0
  0
LINE
  5
502
100
AcDbEntity
  8
Layer_1
 62
7
100
AcDbLine
 10
172.300308
 20
55.697113
 30
0.0
 11
172.841142
 21
54.887888
 31
0.0
  0
LINE
  5
503
100
AcDbEntity
  8
Layer_1
 62
7
100
AcDbLine
 10
172.841142
 20
54.887888
 30
0.0
 11
173.650486
 21
54.347232
 31
0.0
  0
LINE
  5
504
100
AcDbEntity
  8
Layer_1
 62
7
100
AcDbLine
 10
173.650486
 20
54.347232
 30
0.0
 11
174.605123
 21
54.157456
 31
0.0
  0
LINE
  5
505
100
AcDbEntity
  8
Layer_1
 62
7
100
AcDbLine
 10
174.605123
 20
54.157456
 30
0.0
 11
175.575952
 21
54.353538
 31
0.0
  0
LINE
  5
506
100
AcDbEntity
  8
Layer_1
 62
7
100
AcDbLine
 10
175.575952
 20
54.353538
 30
0.0
 11
176.368746
 21
54.888084
 31
0.0
  0
LINE
  5
507
100
AcDbEntity
  8
Layer_1
 62
7
100
AcDbLine
 10
176.368746
 20
54.888084
 30
0.0
 11
176.903292
 21
55.680879
 31
0.0
  0
LINE
  5
508
100
AcDbEntity
  8
Layer_1
 62
7
100
AcDbLine
 10
176.903292
 20
55.680879
 30
0.0
 11
177.099372
 21
56.651708
 31
0.0
  0
LINE
  5
509
100
AcDbEntity
  8
Layer_1
 62
7
100
AcDbLine
 10
177.099372
 20
56.651708
 30
0.0
 11
177.010114
 21
57.312386
 31
0.0
  0
LINE
  5
50a
100
AcDbEntity
  8
Layer_1
 62
7
100
AcDbLine
 10
177.010114
 20
57.312386
 30
0.0
 11
176.754699
 21
57.916053
 31
0.0
  0
LINE
  5
50b
100
AcDbEntity
  8
Layer_1
 62
7
100
AcDbLine
 10
176.754699
 20
57.916053
 30
0.0
 11
176.350951
 21
58.432423
 31
0.0
  0
LINE
  5
50c
100
AcDbEntity
  8
Layer_1
 62
7
100
AcDbLine
 10
176.350951
 20
58.432423
 30
0.0
 11
175.816695
 21
58.831211
 31
0.0
  0
LINE
  5
50d
100
AcDbEntity
  8
Layer_1
 62
7
100
AcDbLine
 10
175.816695
 20
58.831211
 30
0.0
 11
175.816695
 21
62.358989
 31
0.0
  0
LINE
  5
50e
100
AcDbEntity
  8
Layer_1
 62
7
100
AcDbLine
 10
175.816695
 20
62.358989
 30
0.0
 11
175.846461
 21
62.626880
 31
0.0
  0
LINE
  5
50f
100
AcDbEntity
  8
Layer_1
 62
7
100
AcDbLine
 10
175.846461
 20
62.626880
 30
0.0
 11
175.748931
 21
63.110151
 31
0.0
  0
LINE
  5
510
100
AcDbEntity
  8
Layer_1
 62
7
100
AcDbLine
 10
175.748931
 20
63.110151
 30
0.0
 11
175.482924
 21
63.504843
 31
0.0
  0
LINE
  5
511
100
AcDbEntity
  8
Layer_1
 62
7
100
AcDbLine
 10
175.482924
 20
63.504843
 30
0.0
 11
175.088351
 21
63.771025
 31
0.0
  0
LINE
  5
512
100
AcDbEntity
  8
Layer_1
 62
7
100
AcDbLine
 10
175.088351
 20
63.771025
 30
0.0
 11
174.605123
 21
63.868768
 31
0.0
  0
LINE
  5
513
100
AcDbEntity
  8
Layer_1
 62
7
100
AcDbLine
 10
174.605123
 20
63.868768
 30
0.0
 11
174.605123
 21
63.868768
 31
0.0
  0
ENDSEC
  0
SECTION
  2
OBJECTS
  0
DICTIONARY
  5
C
330
0
100
AcDbDictionary
  3
ACAD_GROUP
350
D
  3
ACAD_MLINESTYLE
350
17
  0
DICTIONARY
  5
D
330
C
100
AcDbDictionary
  0
DICTIONARY
  5
1A
330
C
100
AcDbDictionary
  0
DICTIONARY
  5
17
330
C
100
AcDbDictionary
  3
STANDARD
350
18
  0
DICTIONARY
  5
19
330
C
100
AcDbDictionary
  0
ENDSEC
  0
EOF
