  0
SECTION
  2
BLOCKS
  0
ENDSEC
  0
SECTION
  2
ENTITIES
  0
LINE
  8
0
 10
2.47212
 20
-42.6084
 11
4
 21
-41.9282
  0
LINE
  8
0
 10
4
 20
-41.9282
 11
5.35304
 21
-40.9451
  0
LINE
  8
0
 10
5.35304
 20
-40.9451
 11
6.47212
 21
-39.7023
  0
LINE
  8
0
 10
6.47212
 20
-39.7023
 11
7.30835
 21
-38.2539
  0
LINE
  8
0
 10
7.30835
 20
-38.2539
 11
7.82518
 21
-36.6633
  0
LINE
  8
0
 10
7.82518
 20
-36.6633
 11
8
 21
-35
  0
LINE
  8
0
 10
8
 20
-35
 11
8
 21
23
  0
LINE
  8
0
 10
8
 20
23
 11
7.82518
 21
24.6633
  0
LINE
  8
0
 10
7.82518
 20
24.6633
 11
7.30835
 21
26.2539
  0
LINE
  8
0
 10
7.30835
 20
26.2539
 11
6.47212
 21
27.7023
  0
LINE
  8
0
 10
6.47212
 20
27.7023
 11
5.35304
 21
28.9451
  0
LINE
  8
0
 10
5.35304
 20
28.9451
 11
4
 21
29.9282
  0
LINE
  8
0
 10
4
 20
29.9282
 11
2.47212
 21
30.6084
  0
LINE
  8
0
 10
2.47212
 20
30.6084
 11
0.836227
 21
30.9562
  0
LINE
  8
0
 10
0.836227
 20
30.9562
 11
-0.836227
 21
30.9562
  0
LINE
  8
0
 10
-0.836227
 20
30.9562
 11
-2.47212
 21
30.6084
  0
LINE
  8
0
 10
-2.47212
 20
30.6084
 11
-3.99998
 21
29.9282
  0
LINE
  8
0
 10
-3.99998
 20
29.9282
 11
-5.35304
 21
28.9451
  0
LINE
  8
0
 10
-5.35304
 20
28.9451
 11
-6.47212
 21
27.7023
  0
LINE
  8
0
 10
-6.47212
 20
27.7023
 11
-7.30835
 21
26.2539
  0
LINE
  8
0
 10
-7.30835
 20
26.2539
 11
-7.82518
 21
24.6633
  0
LINE
  8
0
 10
-7.82518
 20
24.6633
 11
-8
 21
23
  0
LINE
  8
0
 10
-8
 20
23
 11
-8
 21
-35
  0
LINE
  8
0
 10
-8
 20
-35
 11
-7.82518
 21
-36.6633
  0
LINE
  8
0
 10
-7.82518
 20
-36.6633
 11
-7.30835
 21
-38.2539
  0
LINE
  8
0
 10
-7.30835
 20
-38.2539
 11
-6.47212
 21
-39.7023
  0
LINE
  8
0
 10
-6.47212
 20
-39.7023
 11
-5.35304
 21
-40.9451
  0
LINE
  8
0
 10
-5.35304
 20
-40.9451
 11
-4
 21
-41.9282
  0
LINE
  8
0
 10
-4
 20
-41.9282
 11
-2.47212
 21
-42.6084
  0
LINE
  8
0
 10
-2.47212
 20
-42.6084
 11
-0.836227
 21
-42.9562
  0
LINE
  8
0
 10
-0.836227
 20
-42.9562
 11
0.836227
 21
-42.9562
  0
LINE
  8
0
 10
0.836227
 20
-42.9562
 11
2.47212
 21
-42.6084
  0
LINE
  8
0
 10
-0.156784
 20
21.5082
 11
-0.463516
 21
21.5734
  0
LINE
  8
0
 10
-0.463516
 20
21.5734
 11
-0.75
 21
21.701
  0
LINE
  8
0
 10
-0.75
 20
21.701
 11
-1.00369
 21
21.8853
  0
LINE
  8
0
 10
-1.00369
 20
21.8853
 11
-1.21352
 21
22.1183
  0
LINE
  8
0
 10
-1.21352
 20
22.1183
 11
-1.37032
 21
22.3899
  0
LINE
  8
0
 10
-1.37032
 20
22.3899
 11
-1.46721
 21
22.6881
  0
LINE
  8
0
 10
-1.46721
 20
22.6881
 11
-1.5
 21
23
  0
LINE
  8
0
 10
-1.5
 20
23
 11
-1.46721
 21
23.3119
  0
LINE
  8
0
 10
-1.46721
 20
23.3119
 11
-1.37032
 21
23.6101
  0
LINE
  8
0
 10
-1.37032
 20
23.6101
 11
-1.21352
 21
23.8817
  0
LINE
  8
0
 10
-1.21352
 20
23.8817
 11
-1.00369
 21
24.1147
  0
LINE
  8
0
 10
-1.00369
 20
24.1147
 11
-0.749985
 21
24.299
  0
LINE
  8
0
 10
-0.749985
 20
24.299
 11
-0.463516
 21
24.4266
  0
LINE
  8
0
 10
-0.463516
 20
24.4266
 11
-0.156784
 21
24.4918
  0
LINE
  8
0
 10
-0.156784
 20
24.4918
 11
0.156784
 21
24.4918
  0
LINE
  8
0
 10
0.156784
 20
24.4918
 11
0.463516
 21
24.4266
  0
LINE
  8
0
 10
0.463516
 20
24.4266
 11
0.75
 21
24.299
  0
LINE
  8
0
 10
0.75
 20
24.299
 11
1.00369
 21
24.1147
  0
LINE
  8
0
 10
1.00369
 20
24.1147
 11
1.21352
 21
23.8817
  0
LINE
  8
0
 10
1.21352
 20
23.8817
 11
1.37032
 21
23.6101
  0
LINE
  8
0
 10
1.37032
 20
23.6101
 11
1.46721
 21
23.3119
  0
LINE
  8
0
 10
1.46721
 20
23.3119
 11
1.5
 21
23
  0
LINE
  8
0
 10
1.5
 20
23
 11
1.46721
 21
22.6881
  0
LINE
  8
0
 10
1.46721
 20
22.6881
 11
1.37032
 21
22.3899
  0
LINE
  8
0
 10
1.37032
 20
22.3899
 11
1.21352
 21
22.1183
  0
LINE
  8
0
 10
1.21352
 20
22.1183
 11
1.00369
 21
21.8853
  0
LINE
  8
0
 10
1.00369
 20
21.8853
 11
0.75
 21
21.701
  0
LINE
  8
0
 10
0.75
 20
21.701
 11
0.463516
 21
21.5734
  0
LINE
  8
0
 10
0.463516
 20
21.5734
 11
0.156784
 21
21.5082
  0
LINE
  8
0
 10
0.156784
 20
21.5082
 11
-0.156784
 21
21.5082
  0
LINE
  8
0
 10
-0.156784
 20
-0.491776
 11
-0.463516
 21
-0.426575
  0
LINE
  8
0
 10
-0.463516
 20
-0.426575
 11
-0.75
 21
-0.299026
  0
LINE
  8
0
 10
-0.75
 20
-0.299026
 11
-1.00369
 21
-0.114716
  0
LINE
  8
0
 10
-1.00369
 20
-0.114716
 11
-1.21352
 21
0.118317
  0
LINE
  8
0
 10
-1.21352
 20
0.118317
 11
-1.37032
 21
0.389893
  0
LINE
  8
0
 10
-1.37032
 20
0.389893
 11
-1.46721
 21
0.688126
  0
LINE
  8
0
 10
-1.46721
 20
0.688126
 11
-1.5
 21
1
  0
LINE
  8
0
 10
-1.5
 20
1
 11
-1.46721
 21
1.31186
  0
LINE
  8
0
 10
-1.46721
 20
1.31186
 11
-1.37032
 21
1.61009
  0
LINE
  8
0
 10
-1.37032
 20
1.61009
 11
-1.21352
 21
1.88167
  0
LINE
  8
0
 10
-1.21352
 20
1.88167
 11
-1.00369
 21
2.11472
  0
LINE
  8
0
 10
-1.00369
 20
2.11472
 11
-0.749985
 21
2.29903
  0
LINE
  8
0
 10
-0.749985
 20
2.29903
 11
-0.463516
 21
2.42657
  0
LINE
  8
0
 10
-0.463516
 20
2.42657
 11
-0.156784
 21
2.49178
  0
LINE
  8
0
 10
-0.156784
 20
2.49178
 11
0.156784
 21
2.49178
  0
LINE
  8
0
 10
0.156784
 20
2.49178
 11
0.463516
 21
2.42657
  0
LINE
  8
0
 10
0.463516
 20
2.42657
 11
0.75
 21
2.29903
  0
LINE
  8
0
 10
0.75
 20
2.29903
 11
1.00369
 21
2.11472
  0
LINE
  8
0
 10
1.00369
 20
2.11472
 11
1.21352
 21
1.88167
  0
LINE
  8
0
 10
1.21352
 20
1.88167
 11
1.37032
 21
1.61009
  0
LINE
  8
0
 10
1.37032
 20
1.61009
 11
1.46721
 21
1.31186
  0
LINE
  8
0
 10
1.46721
 20
1.31186
 11
1.5
 21
1
  0
LINE
  8
0
 10
1.5
 20
1
 11
1.46721
 21
0.688126
  0
LINE
  8
0
 10
1.46721
 20
0.688126
 11
1.37032
 21
0.389893
  0
LINE
  8
0
 10
1.37032
 20
0.389893
 11
1.21352
 21
0.118317
  0
LINE
  8
0
 10
1.21352
 20
0.118317
 11
1.00369
 21
-0.114716
  0
LINE
  8
0
 10
1.00369
 20
-0.114716
 11
0.75
 21
-0.299026
  0
LINE
  8
0
 10
0.75
 20
-0.299026
 11
0.463516
 21
-0.426575
  0
LINE
  8
0
 10
0.463516
 20
-0.426575
 11
0.156784
 21
-0.491776
  0
LINE
  8
0
 10
0.156784
 20
-0.491776
 11
-0.156784
 21
-0.491776
  0
LINE
  8
0
 10
-0.156784
 20
-14.4918
 11
-0.463516
 21
-14.4266
  0
LINE
  8
0
 10
-0.463516
 20
-14.4266
 11
-0.75
 21
-14.299
  0
LINE
  8
0
 10
-0.75
 20
-14.299
 11
-1.00369
 21
-14.1147
  0
LINE
  8
0
 10
-1.00369
 20
-14.1147
 11
-1.21352
 21
-13.8817
  0
LINE
  8
0
 10
-1.21352
 20
-13.8817
 11
-1.37032
 21
-13.6101
  0
LINE
  8
0
 10
-1.37032
 20
-13.6101
 11
-1.46721
 21
-13.3119
  0
LINE
  8
0
 10
-1.46721
 20
-13.3119
 11
-1.5
 21
-13
  0
LINE
  8
0
 10
-1.5
 20
-13
 11
-1.46721
 21
-12.6881
  0
LINE
  8
0
 10
-1.46721
 20
-12.6881
 11
-1.37032
 21
-12.3899
  0
LINE
  8
0
 10
-1.37032
 20
-12.3899
 11
-1.21352
 21
-12.1183
  0
LINE
  8
0
 10
-1.21352
 20
-12.1183
 11
-1.00369
 21
-11.8853
  0
LINE
  8
0
 10
-1.00369
 20
-11.8853
 11
-0.749985
 21
-11.701
  0
LINE
  8
0
 10
-0.749985
 20
-11.701
 11
-0.463516
 21
-11.5734
  0
LINE
  8
0
 10
-0.463516
 20
-11.5734
 11
-0.156784
 21
-11.5082
  0
LINE
  8
0
 10
-0.156784
 20
-11.5082
 11
0.156784
 21
-11.5082
  0
LINE
  8
0
 10
0.156784
 20
-11.5082
 11
0.463516
 21
-11.5734
  0
LINE
  8
0
 10
0.463516
 20
-11.5734
 11
0.75
 21
-11.701
  0
LINE
  8
0
 10
0.75
 20
-11.701
 11
1.00369
 21
-11.8853
  0
LINE
  8
0
 10
1.00369
 20
-11.8853
 11
1.21352
 21
-12.1183
  0
LINE
  8
0
 10
1.21352
 20
-12.1183
 11
1.37032
 21
-12.3899
  0
LINE
  8
0
 10
1.37032
 20
-12.3899
 11
1.46721
 21
-12.6881
  0
LINE
  8
0
 10
1.46721
 20
-12.6881
 11
1.5
 21
-13
  0
LINE
  8
0
 10
1.5
 20
-13
 11
1.46721
 21
-13.3119
  0
LINE
  8
0
 10
1.46721
 20
-13.3119
 11
1.37032
 21
-13.6101
  0
LINE
  8
0
 10
1.37032
 20
-13.6101
 11
1.21352
 21
-13.8817
  0
LINE
  8
0
 10
1.21352
 20
-13.8817
 11
1.00369
 21
-14.1147
  0
LINE
  8
0
 10
1.00369
 20
-14.1147
 11
0.75
 21
-14.299
  0
LINE
  8
0
 10
0.75
 20
-14.299
 11
0.463516
 21
-14.4266
  0
LINE
  8
0
 10
0.463516
 20
-14.4266
 11
0.156784
 21
-14.4918
  0
LINE
  8
0
 10
0.156784
 20
-14.4918
 11
-0.156784
 21
-14.4918
  0
LINE
  8
0
 10
-0.156784
 20
-36.4918
 11
-0.463516
 21
-36.4266
  0
LINE
  8
0
 10
-0.463516
 20
-36.4266
 11
-0.75
 21
-36.299
  0
LINE
  8
0
 10
-0.75
 20
-36.299
 11
-1.00369
 21
-36.1147
  0
LINE
  8
0
 10
-1.00369
 20
-36.1147
 11
-1.21352
 21
-35.8817
  0
LINE
  8
0
 10
-1.21352
 20
-35.8817
 11
-1.37032
 21
-35.6101
  0
LINE
  8
0
 10
-1.37032
 20
-35.6101
 11
-1.46721
 21
-35.3119
  0
LINE
  8
0
 10
-1.46721
 20
-35.3119
 11
-1.5
 21
-35
  0
LINE
  8
0
 10
-1.5
 20
-35
 11
-1.46721
 21
-34.6881
  0
LINE
  8
0
 10
-1.46721
 20
-34.6881
 11
-1.37032
 21
-34.3899
  0
LINE
  8
0
 10
-1.37032
 20
-34.3899
 11
-1.21352
 21
-34.1183
  0
LINE
  8
0
 10
-1.21352
 20
-34.1183
 11
-1.00369
 21
-33.8853
  0
LINE
  8
0
 10
-1.00369
 20
-33.8853
 11
-0.749985
 21
-33.701
  0
LINE
  8
0
 10
-0.749985
 20
-33.701
 11
-0.463516
 21
-33.5734
  0
LINE
  8
0
 10
-0.463516
 20
-33.5734
 11
-0.156784
 21
-33.5082
  0
LINE
  8
0
 10
-0.156784
 20
-33.5082
 11
0.156784
 21
-33.5082
  0
LINE
  8
0
 10
0.156784
 20
-33.5082
 11
0.463516
 21
-33.5734
  0
LINE
  8
0
 10
0.463516
 20
-33.5734
 11
0.75
 21
-33.701
  0
LINE
  8
0
 10
0.75
 20
-33.701
 11
1.00369
 21
-33.8853
  0
LINE
  8
0
 10
1.00369
 20
-33.8853
 11
1.21352
 21
-34.1183
  0
LINE
  8
0
 10
1.21352
 20
-34.1183
 11
1.37032
 21
-34.3899
  0
LINE
  8
0
 10
1.37032
 20
-34.3899
 11
1.46721
 21
-34.6881
  0
LINE
  8
0
 10
1.46721
 20
-34.6881
 11
1.5
 21
-35
  0
LINE
  8
0
 10
1.5
 20
-35
 11
1.46721
 21
-35.3119
  0
LINE
  8
0
 10
1.46721
 20
-35.3119
 11
1.37032
 21
-35.6101
  0
LINE
  8
0
 10
1.37032
 20
-35.6101
 11
1.21352
 21
-35.8817
  0
LINE
  8
0
 10
1.21352
 20
-35.8817
 11
1.00369
 21
-36.1147
  0
LINE
  8
0
 10
1.00369
 20
-36.1147
 11
0.75
 21
-36.299
  0
LINE
  8
0
 10
0.75
 20
-36.299
 11
0.463516
 21
-36.4266
  0
LINE
  8
0
 10
0.463516
 20
-36.4266
 11
0.156784
 21
-36.4918
  0
LINE
  8
0
 10
0.156784
 20
-36.4918
 11
-0.156784
 21
-36.4918
  0
ENDSEC
  0
SECTION
  2
OBJECTS
  0
DICTIONARY
  0
ENDSEC
  0
EOF
