  0
SECTION
  2
BLOCKS
  0
ENDSEC
  0
SECTION
  2
ENTITIES
  0
LINE
  8
0
 10
108
 20
65
 11
-108
 21
65
  0
LINE
  8
0
 10
-108
 20
65
 11
-108
 21
-65
  0
LINE
  8
0
 10
-108
 20
-65
 11
108
 21
-65
  0
LINE
  8
0
 10
108
 20
-65
 11
108
 21
65
  0
LINE
  8
0
 10
29.3763
 20
44.5656
 11
28.7798
 21
44.7594
  0
LINE
  8
0
 10
28.7798
 20
44.7594
 11
28.2366
 21
45.0729
  0
LINE
  8
0
 10
28.2366
 20
45.0729
 11
27.7706
 21
45.4926
  0
LINE
  8
0
 10
27.7706
 20
45.4926
 11
27.4019
 21
46
  0
LINE
  8
0
 10
27.4019
 20
46
 11
27.1468
 21
46.5729
  0
LINE
  8
0
 10
27.1468
 20
46.5729
 11
27.0164
 21
47.1864
  0
LINE
  8
0
 10
27.0164
 20
47.1864
 11
27.0164
 21
52.8136
  0
LINE
  8
0
 10
27.0164
 20
52.8136
 11
27.1468
 21
53.427
  0
LINE
  8
0
 10
27.1468
 20
53.427
 11
27.4019
 21
54
  0
LINE
  8
0
 10
27.4019
 20
54
 11
27.7706
 21
54.5074
  0
LINE
  8
0
 10
27.7706
 20
54.5074
 11
28.2366
 21
54.927
  0
LINE
  8
0
 10
28.2366
 20
54.927
 11
28.7798
 21
55.2406
  0
LINE
  8
0
 10
28.7798
 20
55.2406
 11
29.3763
 21
55.4344
  0
LINE
  8
0
 10
29.3763
 20
55.4344
 11
30
 21
55.5
  0
LINE
  8
0
 10
30
 20
55.5
 11
30.6237
 21
55.4344
  0
LINE
  8
0
 10
30.6237
 20
55.4344
 11
31.2202
 21
55.2406
  0
LINE
  8
0
 10
31.2202
 20
55.2406
 11
31.7634
 21
54.927
  0
LINE
  8
0
 10
31.7634
 20
54.927
 11
32.2294
 21
54.5074
  0
LINE
  8
0
 10
32.2294
 20
54.5074
 11
32.5981
 21
54
  0
LINE
  8
0
 10
32.5981
 20
54
 11
32.8532
 21
53.427
  0
LINE
  8
0
 10
32.8532
 20
53.427
 11
32.9836
 21
52.8136
  0
LINE
  8
0
 10
32.9836
 20
52.8136
 11
32.9836
 21
47.1864
  0
LINE
  8
0
 10
32.9836
 20
47.1864
 11
32.8532
 21
46.5729
  0
LINE
  8
0
 10
32.8532
 20
46.5729
 11
32.5981
 21
46
  0
LINE
  8
0
 10
32.5981
 20
46
 11
32.2294
 21
45.4926
  0
LINE
  8
0
 10
32.2294
 20
45.4926
 11
31.7634
 21
45.0729
  0
LINE
  8
0
 10
31.7634
 20
45.0729
 11
31.2202
 21
44.7594
  0
LINE
  8
0
 10
31.2202
 20
44.7594
 11
30.6237
 21
44.5656
  0
LINE
  8
0
 10
30.6237
 20
44.5656
 11
30
 21
44.5
  0
LINE
  8
0
 10
30
 20
44.5
 11
29.3763
 21
44.5656
  0
LINE
  8
0
 10
14.3763
 20
44.5656
 11
13.7798
 21
44.7594
  0
LINE
  8
0
 10
13.7798
 20
44.7594
 11
13.2366
 21
45.0729
  0
LINE
  8
0
 10
13.2366
 20
45.0729
 11
12.7706
 21
45.4926
  0
LINE
  8
0
 10
12.7706
 20
45.4926
 11
12.4019
 21
46
  0
LINE
  8
0
 10
12.4019
 20
46
 11
12.1468
 21
46.5729
  0
LINE
  8
0
 10
12.1468
 20
46.5729
 11
12.0164
 21
47.1864
  0
LINE
  8
0
 10
12.0164
 20
47.1864
 11
12.0164
 21
52.8136
  0
LINE
  8
0
 10
12.0164
 20
52.8136
 11
12.1468
 21
53.427
  0
LINE
  8
0
 10
12.1468
 20
53.427
 11
12.4019
 21
54
  0
LINE
  8
0
 10
12.4019
 20
54
 11
12.7706
 21
54.5074
  0
LINE
  8
0
 10
12.7706
 20
54.5074
 11
13.2366
 21
54.927
  0
LINE
  8
0
 10
13.2366
 20
54.927
 11
13.7798
 21
55.2406
  0
LINE
  8
0
 10
13.7798
 20
55.2406
 11
14.3763
 21
55.4344
  0
LINE
  8
0
 10
14.3763
 20
55.4344
 11
15
 21
55.5
  0
LINE
  8
0
 10
15
 20
55.5
 11
15.6237
 21
55.4344
  0
LINE
  8
0
 10
15.6237
 20
55.4344
 11
16.2202
 21
55.2406
  0
LINE
  8
0
 10
16.2202
 20
55.2406
 11
16.7634
 21
54.927
  0
LINE
  8
0
 10
16.7634
 20
54.927
 11
17.2294
 21
54.5074
  0
LINE
  8
0
 10
17.2294
 20
54.5074
 11
17.5981
 21
54
  0
LINE
  8
0
 10
17.5981
 20
54
 11
17.8532
 21
53.427
  0
LINE
  8
0
 10
17.8532
 20
53.427
 11
17.9836
 21
52.8136
  0
LINE
  8
0
 10
17.9836
 20
52.8136
 11
17.9836
 21
47.1864
  0
LINE
  8
0
 10
17.9836
 20
47.1864
 11
17.8532
 21
46.5729
  0
LINE
  8
0
 10
17.8532
 20
46.5729
 11
17.5981
 21
46
  0
LINE
  8
0
 10
17.5981
 20
46
 11
17.2294
 21
45.4926
  0
LINE
  8
0
 10
17.2294
 20
45.4926
 11
16.7634
 21
45.0729
  0
LINE
  8
0
 10
16.7634
 20
45.0729
 11
16.2202
 21
44.7594
  0
LINE
  8
0
 10
16.2202
 20
44.7594
 11
15.6237
 21
44.5656
  0
LINE
  8
0
 10
15.6237
 20
44.5656
 11
15
 21
44.5
  0
LINE
  8
0
 10
15
 20
44.5
 11
14.3763
 21
44.5656
  0
LINE
  8
0
 10
-60.6237
 20
44.5656
 11
-61.2202
 21
44.7594
  0
LINE
  8
0
 10
-61.2202
 20
44.7594
 11
-61.7634
 21
45.0729
  0
LINE
  8
0
 10
-61.7634
 20
45.0729
 11
-62.2294
 21
45.4926
  0
LINE
  8
0
 10
-62.2294
 20
45.4926
 11
-62.5981
 21
46
  0
LINE
  8
0
 10
-62.5981
 20
46
 11
-62.8532
 21
46.5729
  0
LINE
  8
0
 10
-62.8532
 20
46.5729
 11
-62.9836
 21
47.1864
  0
LINE
  8
0
 10
-62.9836
 20
47.1864
 11
-62.9836
 21
52.8136
  0
LINE
  8
0
 10
-62.9836
 20
52.8136
 11
-62.8532
 21
53.427
  0
LINE
  8
0
 10
-62.8532
 20
53.427
 11
-62.5981
 21
54
  0
LINE
  8
0
 10
-62.5981
 20
54
 11
-62.2294
 21
54.5074
  0
LINE
  8
0
 10
-62.2294
 20
54.5074
 11
-61.7634
 21
54.927
  0
LINE
  8
0
 10
-61.7634
 20
54.927
 11
-61.2202
 21
55.2406
  0
LINE
  8
0
 10
-61.2202
 20
55.2406
 11
-60.6237
 21
55.4344
  0
LINE
  8
0
 10
-60.6237
 20
55.4344
 11
-60
 21
55.5
  0
LINE
  8
0
 10
-60
 20
55.5
 11
-59.3763
 21
55.4344
  0
LINE
  8
0
 10
-59.3763
 20
55.4344
 11
-58.7798
 21
55.2406
  0
LINE
  8
0
 10
-58.7798
 20
55.2406
 11
-58.2366
 21
54.927
  0
LINE
  8
0
 10
-58.2366
 20
54.927
 11
-57.7706
 21
54.5074
  0
LINE
  8
0
 10
-57.7706
 20
54.5074
 11
-57.4019
 21
54
  0
LINE
  8
0
 10
-57.4019
 20
54
 11
-57.1468
 21
53.427
  0
LINE
  8
0
 10
-57.1468
 20
53.427
 11
-57.0164
 21
52.8136
  0
LINE
  8
0
 10
-57.0164
 20
52.8136
 11
-57.0164
 21
47.1864
  0
LINE
  8
0
 10
-57.0164
 20
47.1864
 11
-57.1468
 21
46.5729
  0
LINE
  8
0
 10
-57.1468
 20
46.5729
 11
-57.4019
 21
46
  0
LINE
  8
0
 10
-57.4019
 20
46
 11
-57.7706
 21
45.4926
  0
LINE
  8
0
 10
-57.7706
 20
45.4926
 11
-58.2366
 21
45.0729
  0
LINE
  8
0
 10
-58.2366
 20
45.0729
 11
-58.7798
 21
44.7594
  0
LINE
  8
0
 10
-58.7798
 20
44.7594
 11
-59.3763
 21
44.5656
  0
LINE
  8
0
 10
-59.3763
 20
44.5656
 11
-60
 21
44.5
  0
LINE
  8
0
 10
-60
 20
44.5
 11
-60.6237
 21
44.5656
  0
LINE
  8
0
 10
-0.623734
 20
44.5656
 11
-1.2202
 21
44.7594
  0
LINE
  8
0
 10
-1.2202
 20
44.7594
 11
-1.76335
 21
45.0729
  0
LINE
  8
0
 10
-1.76335
 20
45.0729
 11
-2.22943
 21
45.4926
  0
LINE
  8
0
 10
-2.22943
 20
45.4926
 11
-2.59807
 21
46
  0
LINE
  8
0
 10
-2.59807
 20
46
 11
-2.85316
 21
46.5729
  0
LINE
  8
0
 10
-2.85316
 20
46.5729
 11
-2.98355
 21
47.1864
  0
LINE
  8
0
 10
-2.98355
 20
47.1864
 11
-2.98355
 21
52.8136
  0
LINE
  8
0
 10
-2.98355
 20
52.8136
 11
-2.85316
 21
53.427
  0
LINE
  8
0
 10
-2.85316
 20
53.427
 11
-2.59807
 21
54
  0
LINE
  8
0
 10
-2.59807
 20
54
 11
-2.22943
 21
54.5074
  0
LINE
  8
0
 10
-2.22943
 20
54.5074
 11
-1.76335
 21
54.927
  0
LINE
  8
0
 10
-1.76335
 20
54.927
 11
-1.2202
 21
55.2406
  0
LINE
  8
0
 10
-1.2202
 20
55.2406
 11
-0.623734
 21
55.4344
  0
LINE
  8
0
 10
-0.623734
 20
55.4344
 11
0
 21
55.5
  0
LINE
  8
0
 10
0
 20
55.5
 11
0.623734
 21
55.4344
  0
LINE
  8
0
 10
0.623734
 20
55.4344
 11
1.2202
 21
55.2406
  0
LINE
  8
0
 10
1.2202
 20
55.2406
 11
1.76335
 21
54.927
  0
LINE
  8
0
 10
1.76335
 20
54.927
 11
2.22943
 21
54.5074
  0
LINE
  8
0
 10
2.22943
 20
54.5074
 11
2.59807
 21
54
  0
LINE
  8
0
 10
2.59807
 20
54
 11
2.85316
 21
53.427
  0
LINE
  8
0
 10
2.85316
 20
53.427
 11
2.98355
 21
52.8136
  0
LINE
  8
0
 10
2.98355
 20
52.8136
 11
2.98355
 21
47.1864
  0
LINE
  8
0
 10
2.98355
 20
47.1864
 11
2.85316
 21
46.5729
  0
LINE
  8
0
 10
2.85316
 20
46.5729
 11
2.59807
 21
46
  0
LINE
  8
0
 10
2.59807
 20
46
 11
2.22943
 21
45.4926
  0
LINE
  8
0
 10
2.22943
 20
45.4926
 11
1.76335
 21
45.0729
  0
LINE
  8
0
 10
1.76335
 20
45.0729
 11
1.2202
 21
44.7594
  0
LINE
  8
0
 10
1.2202
 20
44.7594
 11
0.623734
 21
44.5656
  0
LINE
  8
0
 10
0.623734
 20
44.5656
 11
0
 21
44.5
  0
LINE
  8
0
 10
0
 20
44.5
 11
-0.623734
 21
44.5656
  0
LINE
  8
0
 10
44.3763
 20
44.5656
 11
43.7798
 21
44.7594
  0
LINE
  8
0
 10
43.7798
 20
44.7594
 11
43.2366
 21
45.0729
  0
LINE
  8
0
 10
43.2366
 20
45.0729
 11
42.7706
 21
45.4926
  0
LINE
  8
0
 10
42.7706
 20
45.4926
 11
42.4019
 21
46
  0
LINE
  8
0
 10
42.4019
 20
46
 11
42.1468
 21
46.5729
  0
LINE
  8
0
 10
42.1468
 20
46.5729
 11
42.0164
 21
47.1864
  0
LINE
  8
0
 10
42.0164
 20
47.1864
 11
42.0164
 21
52.8136
  0
LINE
  8
0
 10
42.0164
 20
52.8136
 11
42.1468
 21
53.427
  0
LINE
  8
0
 10
42.1468
 20
53.427
 11
42.4019
 21
54
  0
LINE
  8
0
 10
42.4019
 20
54
 11
42.7706
 21
54.5074
  0
LINE
  8
0
 10
42.7706
 20
54.5074
 11
43.2366
 21
54.927
  0
LINE
  8
0
 10
43.2366
 20
54.927
 11
43.7798
 21
55.2406
  0
LINE
  8
0
 10
43.7798
 20
55.2406
 11
44.3763
 21
55.4344
  0
LINE
  8
0
 10
44.3763
 20
55.4344
 11
45
 21
55.5
  0
LINE
  8
0
 10
45
 20
55.5
 11
45.6237
 21
55.4344
  0
LINE
  8
0
 10
45.6237
 20
55.4344
 11
46.2202
 21
55.2406
  0
LINE
  8
0
 10
46.2202
 20
55.2406
 11
46.7634
 21
54.927
  0
LINE
  8
0
 10
46.7634
 20
54.927
 11
47.2294
 21
54.5074
  0
LINE
  8
0
 10
47.2294
 20
54.5074
 11
47.5981
 21
54
  0
LINE
  8
0
 10
47.5981
 20
54
 11
47.8532
 21
53.427
  0
LINE
  8
0
 10
47.8532
 20
53.427
 11
47.9836
 21
52.8136
  0
LINE
  8
0
 10
47.9836
 20
52.8136
 11
47.9836
 21
47.1864
  0
LINE
  8
0
 10
47.9836
 20
47.1864
 11
47.8532
 21
46.5729
  0
LINE
  8
0
 10
47.8532
 20
46.5729
 11
47.5981
 21
46
  0
LINE
  8
0
 10
47.5981
 20
46
 11
47.2294
 21
45.4926
  0
LINE
  8
0
 10
47.2294
 20
45.4926
 11
46.7634
 21
45.0729
  0
LINE
  8
0
 10
46.7634
 20
45.0729
 11
46.2202
 21
44.7594
  0
LINE
  8
0
 10
46.2202
 20
44.7594
 11
45.6237
 21
44.5656
  0
LINE
  8
0
 10
45.6237
 20
44.5656
 11
45
 21
44.5
  0
LINE
  8
0
 10
45
 20
44.5
 11
44.3763
 21
44.5656
  0
LINE
  8
0
 10
-15.6237
 20
44.5656
 11
-16.2202
 21
44.7594
  0
LINE
  8
0
 10
-16.2202
 20
44.7594
 11
-16.7634
 21
45.0729
  0
LINE
  8
0
 10
-16.7634
 20
45.0729
 11
-17.2294
 21
45.4926
  0
LINE
  8
0
 10
-17.2294
 20
45.4926
 11
-17.5981
 21
46
  0
LINE
  8
0
 10
-17.5981
 20
46
 11
-17.8532
 21
46.5729
  0
LINE
  8
0
 10
-17.8532
 20
46.5729
 11
-17.9836
 21
47.1864
  0
LINE
  8
0
 10
-17.9836
 20
47.1864
 11
-17.9836
 21
52.8136
  0
LINE
  8
0
 10
-17.9836
 20
52.8136
 11
-17.8532
 21
53.427
  0
LINE
  8
0
 10
-17.8532
 20
53.427
 11
-17.5981
 21
54
  0
LINE
  8
0
 10
-17.5981
 20
54
 11
-17.2294
 21
54.5074
  0
LINE
  8
0
 10
-17.2294
 20
54.5074
 11
-16.7634
 21
54.927
  0
LINE
  8
0
 10
-16.7634
 20
54.927
 11
-16.2202
 21
55.2406
  0
LINE
  8
0
 10
-16.2202
 20
55.2406
 11
-15.6237
 21
55.4344
  0
LINE
  8
0
 10
-15.6237
 20
55.4344
 11
-15
 21
55.5
  0
LINE
  8
0
 10
-15
 20
55.5
 11
-14.3763
 21
55.4344
  0
LINE
  8
0
 10
-14.3763
 20
55.4344
 11
-13.7798
 21
55.2406
  0
LINE
  8
0
 10
-13.7798
 20
55.2406
 11
-13.2366
 21
54.927
  0
LINE
  8
0
 10
-13.2366
 20
54.927
 11
-12.7706
 21
54.5074
  0
LINE
  8
0
 10
-12.7706
 20
54.5074
 11
-12.4019
 21
54
  0
LINE
  8
0
 10
-12.4019
 20
54
 11
-12.1468
 21
53.427
  0
LINE
  8
0
 10
-12.1468
 20
53.427
 11
-12.0164
 21
52.8136
  0
LINE
  8
0
 10
-12.0164
 20
52.8136
 11
-12.0164
 21
47.1864
  0
LINE
  8
0
 10
-12.0164
 20
47.1864
 11
-12.1468
 21
46.5729
  0
LINE
  8
0
 10
-12.1468
 20
46.5729
 11
-12.4019
 21
46
  0
LINE
  8
0
 10
-12.4019
 20
46
 11
-12.7706
 21
45.4926
  0
LINE
  8
0
 10
-12.7706
 20
45.4926
 11
-13.2366
 21
45.0729
  0
LINE
  8
0
 10
-13.2366
 20
45.0729
 11
-13.7798
 21
44.7594
  0
LINE
  8
0
 10
-13.7798
 20
44.7594
 11
-14.3763
 21
44.5656
  0
LINE
  8
0
 10
-14.3763
 20
44.5656
 11
-15
 21
44.5
  0
LINE
  8
0
 10
-15
 20
44.5
 11
-15.6237
 21
44.5656
  0
LINE
  8
0
 10
-30.6237
 20
44.5656
 11
-31.2202
 21
44.7594
  0
LINE
  8
0
 10
-31.2202
 20
44.7594
 11
-31.7634
 21
45.0729
  0
LINE
  8
0
 10
-31.7634
 20
45.0729
 11
-32.2294
 21
45.4926
  0
LINE
  8
0
 10
-32.2294
 20
45.4926
 11
-32.5981
 21
46
  0
LINE
  8
0
 10
-32.5981
 20
46
 11
-32.8532
 21
46.5729
  0
LINE
  8
0
 10
-32.8532
 20
46.5729
 11
-32.9836
 21
47.1864
  0
LINE
  8
0
 10
-32.9836
 20
47.1864
 11
-32.9836
 21
52.8136
  0
LINE
  8
0
 10
-32.9836
 20
52.8136
 11
-32.8532
 21
53.427
  0
LINE
  8
0
 10
-32.8532
 20
53.427
 11
-32.5981
 21
54
  0
LINE
  8
0
 10
-32.5981
 20
54
 11
-32.2294
 21
54.5074
  0
LINE
  8
0
 10
-32.2294
 20
54.5074
 11
-31.7634
 21
54.927
  0
LINE
  8
0
 10
-31.7634
 20
54.927
 11
-31.2202
 21
55.2406
  0
LINE
  8
0
 10
-31.2202
 20
55.2406
 11
-30.6237
 21
55.4344
  0
LINE
  8
0
 10
-30.6237
 20
55.4344
 11
-30
 21
55.5
  0
LINE
  8
0
 10
-30
 20
55.5
 11
-29.3763
 21
55.4344
  0
LINE
  8
0
 10
-29.3763
 20
55.4344
 11
-28.7798
 21
55.2406
  0
LINE
  8
0
 10
-28.7798
 20
55.2406
 11
-28.2366
 21
54.927
  0
LINE
  8
0
 10
-28.2366
 20
54.927
 11
-27.7706
 21
54.5074
  0
LINE
  8
0
 10
-27.7706
 20
54.5074
 11
-27.4019
 21
54
  0
LINE
  8
0
 10
-27.4019
 20
54
 11
-27.1468
 21
53.427
  0
LINE
  8
0
 10
-27.1468
 20
53.427
 11
-27.0164
 21
52.8136
  0
LINE
  8
0
 10
-27.0164
 20
52.8136
 11
-27.0164
 21
47.1864
  0
LINE
  8
0
 10
-27.0164
 20
47.1864
 11
-27.1468
 21
46.5729
  0
LINE
  8
0
 10
-27.1468
 20
46.5729
 11
-27.4019
 21
46
  0
LINE
  8
0
 10
-27.4019
 20
46
 11
-27.7706
 21
45.4926
  0
LINE
  8
0
 10
-27.7706
 20
45.4926
 11
-28.2366
 21
45.0729
  0
LINE
  8
0
 10
-28.2366
 20
45.0729
 11
-28.7798
 21
44.7594
  0
LINE
  8
0
 10
-28.7798
 20
44.7594
 11
-29.3763
 21
44.5656
  0
LINE
  8
0
 10
-29.3763
 20
44.5656
 11
-30
 21
44.5
  0
LINE
  8
0
 10
-30
 20
44.5
 11
-30.6237
 21
44.5656
  0
LINE
  8
0
 10
59.3763
 20
44.5656
 11
58.7798
 21
44.7594
  0
LINE
  8
0
 10
58.7798
 20
44.7594
 11
58.2366
 21
45.0729
  0
LINE
  8
0
 10
58.2366
 20
45.0729
 11
57.7706
 21
45.4926
  0
LINE
  8
0
 10
57.7706
 20
45.4926
 11
57.4019
 21
46
  0
LINE
  8
0
 10
57.4019
 20
46
 11
57.1468
 21
46.5729
  0
LINE
  8
0
 10
57.1468
 20
46.5729
 11
57.0164
 21
47.1864
  0
LINE
  8
0
 10
57.0164
 20
47.1864
 11
57.0164
 21
52.8136
  0
LINE
  8
0
 10
57.0164
 20
52.8136
 11
57.1468
 21
53.427
  0
LINE
  8
0
 10
57.1468
 20
53.427
 11
57.4019
 21
54
  0
LINE
  8
0
 10
57.4019
 20
54
 11
57.7706
 21
54.5074
  0
LINE
  8
0
 10
57.7706
 20
54.5074
 11
58.2366
 21
54.927
  0
LINE
  8
0
 10
58.2366
 20
54.927
 11
58.7798
 21
55.2406
  0
LINE
  8
0
 10
58.7798
 20
55.2406
 11
59.3763
 21
55.4344
  0
LINE
  8
0
 10
59.3763
 20
55.4344
 11
60
 21
55.5
  0
LINE
  8
0
 10
60
 20
55.5
 11
60.6237
 21
55.4344
  0
LINE
  8
0
 10
60.6237
 20
55.4344
 11
61.2202
 21
55.2406
  0
LINE
  8
0
 10
61.2202
 20
55.2406
 11
61.7634
 21
54.927
  0
LINE
  8
0
 10
61.7634
 20
54.927
 11
62.2294
 21
54.5074
  0
LINE
  8
0
 10
62.2294
 20
54.5074
 11
62.5981
 21
54
  0
LINE
  8
0
 10
62.5981
 20
54
 11
62.8532
 21
53.427
  0
LINE
  8
0
 10
62.8532
 20
53.427
 11
62.9836
 21
52.8136
  0
LINE
  8
0
 10
62.9836
 20
52.8136
 11
62.9836
 21
47.1864
  0
LINE
  8
0
 10
62.9836
 20
47.1864
 11
62.8532
 21
46.5729
  0
LINE
  8
0
 10
62.8532
 20
46.5729
 11
62.5981
 21
46
  0
LINE
  8
0
 10
62.5981
 20
46
 11
62.2294
 21
45.4926
  0
LINE
  8
0
 10
62.2294
 20
45.4926
 11
61.7634
 21
45.0729
  0
LINE
  8
0
 10
61.7634
 20
45.0729
 11
61.2202
 21
44.7594
  0
LINE
  8
0
 10
61.2202
 20
44.7594
 11
60.6237
 21
44.5656
  0
LINE
  8
0
 10
60.6237
 20
44.5656
 11
60
 21
44.5
  0
LINE
  8
0
 10
60
 20
44.5
 11
59.3763
 21
44.5656
  0
LINE
  8
0
 10
-45.6237
 20
44.5656
 11
-46.2202
 21
44.7594
  0
LINE
  8
0
 10
-46.2202
 20
44.7594
 11
-46.7634
 21
45.0729
  0
LINE
  8
0
 10
-46.7634
 20
45.0729
 11
-47.2294
 21
45.4926
  0
LINE
  8
0
 10
-47.2294
 20
45.4926
 11
-47.5981
 21
46
  0
LINE
  8
0
 10
-47.5981
 20
46
 11
-47.8532
 21
46.5729
  0
LINE
  8
0
 10
-47.8532
 20
46.5729
 11
-47.9836
 21
47.1864
  0
LINE
  8
0
 10
-47.9836
 20
47.1864
 11
-47.9836
 21
52.8136
  0
LINE
  8
0
 10
-47.9836
 20
52.8136
 11
-47.8532
 21
53.427
  0
LINE
  8
0
 10
-47.8532
 20
53.427
 11
-47.5981
 21
54
  0
LINE
  8
0
 10
-47.5981
 20
54
 11
-47.2294
 21
54.5074
  0
LINE
  8
0
 10
-47.2294
 20
54.5074
 11
-46.7634
 21
54.927
  0
LINE
  8
0
 10
-46.7634
 20
54.927
 11
-46.2202
 21
55.2406
  0
LINE
  8
0
 10
-46.2202
 20
55.2406
 11
-45.6237
 21
55.4344
  0
LINE
  8
0
 10
-45.6237
 20
55.4344
 11
-45
 21
55.5
  0
LINE
  8
0
 10
-45
 20
55.5
 11
-44.3763
 21
55.4344
  0
LINE
  8
0
 10
-44.3763
 20
55.4344
 11
-43.7798
 21
55.2406
  0
LINE
  8
0
 10
-43.7798
 20
55.2406
 11
-43.2366
 21
54.927
  0
LINE
  8
0
 10
-43.2366
 20
54.927
 11
-42.7706
 21
54.5074
  0
LINE
  8
0
 10
-42.7706
 20
54.5074
 11
-42.4019
 21
54
  0
LINE
  8
0
 10
-42.4019
 20
54
 11
-42.1468
 21
53.427
  0
LINE
  8
0
 10
-42.1468
 20
53.427
 11
-42.0164
 21
52.8136
  0
LINE
  8
0
 10
-42.0164
 20
52.8136
 11
-42.0164
 21
47.1864
  0
LINE
  8
0
 10
-42.0164
 20
47.1864
 11
-42.1468
 21
46.5729
  0
LINE
  8
0
 10
-42.1468
 20
46.5729
 11
-42.4019
 21
46
  0
LINE
  8
0
 10
-42.4019
 20
46
 11
-42.7706
 21
45.4926
  0
LINE
  8
0
 10
-42.7706
 20
45.4926
 11
-43.2366
 21
45.0729
  0
LINE
  8
0
 10
-43.2366
 20
45.0729
 11
-43.7798
 21
44.7594
  0
LINE
  8
0
 10
-43.7798
 20
44.7594
 11
-44.3763
 21
44.5656
  0
LINE
  8
0
 10
-44.3763
 20
44.5656
 11
-45
 21
44.5
  0
LINE
  8
0
 10
-45
 20
44.5
 11
-45.6237
 21
44.5656
  0
LINE
  8
0
 10
-99.2613
 20
47.5137
 11
-99.7725
 21
47.6224
  0
LINE
  8
0
 10
-99.7725
 20
47.6224
 11
-100.25
 21
47.8349
  0
LINE
  8
0
 10
-100.25
 20
47.8349
 11
-100.673
 21
48.1422
  0
LINE
  8
0
 10
-100.673
 20
48.1422
 11
-101.023
 21
48.5305
  0
LINE
  8
0
 10
-101.023
 20
48.5305
 11
-101.284
 21
48.9832
  0
LINE
  8
0
 10
-101.284
 20
48.9832
 11
-101.445
 21
49.4802
  0
LINE
  8
0
 10
-101.445
 20
49.4802
 11
-101.5
 21
50
  0
LINE
  8
0
 10
-101.5
 20
50
 11
-101.445
 21
50.5198
  0
LINE
  8
0
 10
-101.445
 20
50.5198
 11
-101.284
 21
51.0168
  0
LINE
  8
0
 10
-101.284
 20
51.0168
 11
-101.023
 21
51.4695
  0
LINE
  8
0
 10
-101.023
 20
51.4695
 11
-100.673
 21
51.8578
  0
LINE
  8
0
 10
-100.673
 20
51.8578
 11
-100.25
 21
52.1651
  0
LINE
  8
0
 10
-100.25
 20
52.1651
 11
-99.7725
 21
52.3776
  0
LINE
  8
0
 10
-99.7725
 20
52.3776
 11
-99.2613
 21
52.4863
  0
LINE
  8
0
 10
-99.2613
 20
52.4863
 11
-98.7387
 21
52.4863
  0
LINE
  8
0
 10
-98.7387
 20
52.4863
 11
-98.2274
 21
52.3776
  0
LINE
  8
0
 10
-98.2274
 20
52.3776
 11
-97.75
 21
52.1651
  0
LINE
  8
0
 10
-97.75
 20
52.1651
 11
-97.3272
 21
51.8578
  0
LINE
  8
0
 10
-97.3272
 20
51.8578
 11
-96.9774
 21
51.4695
  0
LINE
  8
0
 10
-96.9774
 20
51.4695
 11
-96.7161
 21
51.0168
  0
LINE
  8
0
 10
-96.7161
 20
51.0168
 11
-96.5546
 21
50.5198
  0
LINE
  8
0
 10
-96.5546
 20
50.5198
 11
-96.5
 21
50
  0
LINE
  8
0
 10
-96.5
 20
50
 11
-96.5546
 21
49.4802
  0
LINE
  8
0
 10
-96.5546
 20
49.4802
 11
-96.7161
 21
48.9832
  0
LINE
  8
0
 10
-96.7161
 20
48.9832
 11
-96.9774
 21
48.5305
  0
LINE
  8
0
 10
-96.9774
 20
48.5305
 11
-97.3272
 21
48.1422
  0
LINE
  8
0
 10
-97.3272
 20
48.1422
 11
-97.75
 21
47.8349
  0
LINE
  8
0
 10
-97.75
 20
47.8349
 11
-98.2274
 21
47.6224
  0
LINE
  8
0
 10
-98.2274
 20
47.6224
 11
-98.7387
 21
47.5137
  0
LINE
  8
0
 10
-98.7387
 20
47.5137
 11
-99.2613
 21
47.5137
  0
LINE
  8
0
 10
-81.2613
 20
47.5137
 11
-81.7726
 21
47.6224
  0
LINE
  8
0
 10
-81.7726
 20
47.6224
 11
-82.25
 21
47.8349
  0
LINE
  8
0
 10
-82.25
 20
47.8349
 11
-82.6728
 21
48.1422
  0
LINE
  8
0
 10
-82.6728
 20
48.1422
 11
-83.0226
 21
48.5305
  0
LINE
  8
0
 10
-83.0226
 20
48.5305
 11
-83.2839
 21
48.9832
  0
LINE
  8
0
 10
-83.2839
 20
48.9832
 11
-83.4454
 21
49.4802
  0
LINE
  8
0
 10
-83.4454
 20
49.4802
 11
-83.5
 21
50
  0
LINE
  8
0
 10
-83.5
 20
50
 11
-83.4454
 21
50.5198
  0
LINE
  8
0
 10
-83.4454
 20
50.5198
 11
-83.2839
 21
51.0168
  0
LINE
  8
0
 10
-83.2839
 20
51.0168
 11
-83.0226
 21
51.4695
  0
LINE
  8
0
 10
-83.0226
 20
51.4695
 11
-82.6728
 21
51.8578
  0
LINE
  8
0
 10
-82.6728
 20
51.8578
 11
-82.25
 21
52.1651
  0
LINE
  8
0
 10
-82.25
 20
52.1651
 11
-81.7726
 21
52.3776
  0
LINE
  8
0
 10
-81.7726
 20
52.3776
 11
-81.2613
 21
52.4863
  0
LINE
  8
0
 10
-81.2613
 20
52.4863
 11
-80.7387
 21
52.4863
  0
LINE
  8
0
 10
-80.7387
 20
52.4863
 11
-80.2275
 21
52.3776
  0
LINE
  8
0
 10
-80.2275
 20
52.3776
 11
-79.75
 21
52.1651
  0
LINE
  8
0
 10
-79.75
 20
52.1651
 11
-79.3272
 21
51.8578
  0
LINE
  8
0
 10
-79.3272
 20
51.8578
 11
-78.9775
 21
51.4695
  0
LINE
  8
0
 10
-78.9775
 20
51.4695
 11
-78.7161
 21
51.0168
  0
LINE
  8
0
 10
-78.7161
 20
51.0168
 11
-78.5546
 21
50.5198
  0
LINE
  8
0
 10
-78.5546
 20
50.5198
 11
-78.5
 21
50
  0
LINE
  8
0
 10
-78.5
 20
50
 11
-78.5546
 21
49.4802
  0
LINE
  8
0
 10
-78.5546
 20
49.4802
 11
-78.7161
 21
48.9832
  0
LINE
  8
0
 10
-78.7161
 20
48.9832
 11
-78.9775
 21
48.5305
  0
LINE
  8
0
 10
-78.9775
 20
48.5305
 11
-79.3272
 21
48.1422
  0
LINE
  8
0
 10
-79.3272
 20
48.1422
 11
-79.75
 21
47.8349
  0
LINE
  8
0
 10
-79.75
 20
47.8349
 11
-80.2275
 21
47.6224
  0
LINE
  8
0
 10
-80.2275
 20
47.6224
 11
-80.7387
 21
47.5137
  0
LINE
  8
0
 10
-80.7387
 20
47.5137
 11
-81.2613
 21
47.5137
  0
LINE
  8
0
 10
80.7387
 20
47.5137
 11
80.2275
 21
47.6224
  0
LINE
  8
0
 10
80.2275
 20
47.6224
 11
79.75
 21
47.8349
  0
LINE
  8
0
 10
79.75
 20
47.8349
 11
79.3272
 21
48.1422
  0
LINE
  8
0
 10
79.3272
 20
48.1422
 11
78.9775
 21
48.5305
  0
LINE
  8
0
 10
78.9775
 20
48.5305
 11
78.7161
 21
48.9832
  0
LINE
  8
0
 10
78.7161
 20
48.9832
 11
78.5546
 21
49.4802
  0
LINE
  8
0
 10
78.5546
 20
49.4802
 11
78.5
 21
50
  0
LINE
  8
0
 10
78.5
 20
50
 11
78.5546
 21
50.5198
  0
LINE
  8
0
 10
78.5546
 20
50.5198
 11
78.7161
 21
51.0168
  0
LINE
  8
0
 10
78.7161
 20
51.0168
 11
78.9775
 21
51.4695
  0
LINE
  8
0
 10
78.9775
 20
51.4695
 11
79.3272
 21
51.8578
  0
LINE
  8
0
 10
79.3272
 20
51.8578
 11
79.75
 21
52.1651
  0
LINE
  8
0
 10
79.75
 20
52.1651
 11
80.2275
 21
52.3776
  0
LINE
  8
0
 10
80.2275
 20
52.3776
 11
80.7387
 21
52.4863
  0
LINE
  8
0
 10
80.7387
 20
52.4863
 11
81.2613
 21
52.4863
  0
LINE
  8
0
 10
81.2613
 20
52.4863
 11
81.7726
 21
52.3776
  0
LINE
  8
0
 10
81.7726
 20
52.3776
 11
82.25
 21
52.1651
  0
LINE
  8
0
 10
82.25
 20
52.1651
 11
82.6728
 21
51.8578
  0
LINE
  8
0
 10
82.6728
 20
51.8578
 11
83.0226
 21
51.4695
  0
LINE
  8
0
 10
83.0226
 20
51.4695
 11
83.2839
 21
51.0168
  0
LINE
  8
0
 10
83.2839
 20
51.0168
 11
83.4454
 21
50.5198
  0
LINE
  8
0
 10
83.4454
 20
50.5198
 11
83.5
 21
50
  0
LINE
  8
0
 10
83.5
 20
50
 11
83.4454
 21
49.4802
  0
LINE
  8
0
 10
83.4454
 20
49.4802
 11
83.2839
 21
48.9832
  0
LINE
  8
0
 10
83.2839
 20
48.9832
 11
83.0226
 21
48.5305
  0
LINE
  8
0
 10
83.0226
 20
48.5305
 11
82.6728
 21
48.1422
  0
LINE
  8
0
 10
82.6728
 20
48.1422
 11
82.25
 21
47.8349
  0
LINE
  8
0
 10
82.25
 20
47.8349
 11
81.7726
 21
47.6224
  0
LINE
  8
0
 10
81.7726
 20
47.6224
 11
81.2613
 21
47.5137
  0
LINE
  8
0
 10
81.2613
 20
47.5137
 11
80.7387
 21
47.5137
  0
LINE
  8
0
 10
98.7387
 20
47.5137
 11
98.2274
 21
47.6224
  0
LINE
  8
0
 10
98.2274
 20
47.6224
 11
97.75
 21
47.8349
  0
LINE
  8
0
 10
97.75
 20
47.8349
 11
97.3272
 21
48.1422
  0
LINE
  8
0
 10
97.3272
 20
48.1422
 11
96.9774
 21
48.5305
  0
LINE
  8
0
 10
96.9774
 20
48.5305
 11
96.7161
 21
48.9832
  0
LINE
  8
0
 10
96.7161
 20
48.9832
 11
96.5546
 21
49.4802
  0
LINE
  8
0
 10
96.5546
 20
49.4802
 11
96.5
 21
50
  0
LINE
  8
0
 10
96.5
 20
50
 11
96.5546
 21
50.5198
  0
LINE
  8
0
 10
96.5546
 20
50.5198
 11
96.7161
 21
51.0168
  0
LINE
  8
0
 10
96.7161
 20
51.0168
 11
96.9774
 21
51.4695
  0
LINE
  8
0
 10
96.9774
 20
51.4695
 11
97.3272
 21
51.8578
  0
LINE
  8
0
 10
97.3272
 20
51.8578
 11
97.75
 21
52.1651
  0
LINE
  8
0
 10
97.75
 20
52.1651
 11
98.2274
 21
52.3776
  0
LINE
  8
0
 10
98.2274
 20
52.3776
 11
98.7387
 21
52.4863
  0
LINE
  8
0
 10
98.7387
 20
52.4863
 11
99.2613
 21
52.4863
  0
LINE
  8
0
 10
99.2613
 20
52.4863
 11
99.7725
 21
52.3776
  0
LINE
  8
0
 10
99.7725
 20
52.3776
 11
100.25
 21
52.1651
  0
LINE
  8
0
 10
100.25
 20
52.1651
 11
100.673
 21
51.8578
  0
LINE
  8
0
 10
100.673
 20
51.8578
 11
101.023
 21
51.4695
  0
LINE
  8
0
 10
101.023
 20
51.4695
 11
101.284
 21
51.0168
  0
LINE
  8
0
 10
101.284
 20
51.0168
 11
101.445
 21
50.5198
  0
LINE
  8
0
 10
101.445
 20
50.5198
 11
101.5
 21
50
  0
LINE
  8
0
 10
101.5
 20
50
 11
101.445
 21
49.4802
  0
LINE
  8
0
 10
101.445
 20
49.4802
 11
101.284
 21
48.9832
  0
LINE
  8
0
 10
101.284
 20
48.9832
 11
101.023
 21
48.5305
  0
LINE
  8
0
 10
101.023
 20
48.5305
 11
100.673
 21
48.1422
  0
LINE
  8
0
 10
100.673
 20
48.1422
 11
100.25
 21
47.8349
  0
LINE
  8
0
 10
100.25
 20
47.8349
 11
99.7725
 21
47.6224
  0
LINE
  8
0
 10
99.7725
 20
47.6224
 11
99.2613
 21
47.5137
  0
LINE
  8
0
 10
99.2613
 20
47.5137
 11
98.7387
 21
47.5137
  0
LINE
  8
0
 10
9.39745
 20
23.1263
 11
8.98407
 21
23.3964
  0
LINE
  8
0
 10
8.98407
 20
23.3964
 11
8.68079
 21
23.7861
  0
LINE
  8
0
 10
8.68079
 20
23.7861
 11
8.52045
 21
24.2531
  0
LINE
  8
0
 10
8.52045
 20
24.2531
 11
8.52045
 21
24.7469
  0
LINE
  8
0
 10
8.52045
 20
24.7469
 11
8.68079
 21
25.2139
  0
LINE
  8
0
 10
8.68079
 20
25.2139
 11
8.98407
 21
25.6036
  0
LINE
  8
0
 10
8.98407
 20
25.6036
 11
9.39745
 21
25.8737
  0
LINE
  8
0
 10
9.39745
 20
25.8737
 11
9.87613
 21
25.9949
  0
LINE
  8
0
 10
9.87613
 20
25.9949
 11
10.3682
 21
25.9541
  0
LINE
  8
0
 10
10.3682
 20
25.9541
 11
10.8204
 21
25.7557
  0
LINE
  8
0
 10
10.8204
 20
25.7557
 11
11.1837
 21
25.4213
  0
LINE
  8
0
 10
11.1837
 20
25.4213
 11
11.4187
 21
24.987
  0
LINE
  8
0
 10
11.4187
 20
24.987
 11
11.5
 21
24.5
  0
LINE
  8
0
 10
11.5
 20
24.5
 11
11.4187
 21
24.0129
  0
LINE
  8
0
 10
11.4187
 20
24.0129
 11
11.1837
 21
23.5787
  0
LINE
  8
0
 10
11.1837
 20
23.5787
 11
10.8204
 21
23.2442
  0
LINE
  8
0
 10
10.8204
 20
23.2442
 11
10.3682
 21
23.0459
  0
LINE
  8
0
 10
10.3682
 20
23.0459
 11
9.87613
 21
23.0051
  0
LINE
  8
0
 10
9.87613
 20
23.0051
 11
9.39745
 21
23.1263
  0
LINE
  8
0
 10
67.3974
 20
23.1263
 11
66.9841
 21
23.3964
  0
LINE
  8
0
 10
66.9841
 20
23.3964
 11
66.6808
 21
23.7861
  0
LINE
  8
0
 10
66.6808
 20
23.7861
 11
66.5204
 21
24.2531
  0
LINE
  8
0
 10
66.5204
 20
24.2531
 11
66.5204
 21
24.7469
  0
LINE
  8
0
 10
66.5204
 20
24.7469
 11
66.6808
 21
25.2139
  0
LINE
  8
0
 10
66.6808
 20
25.2139
 11
66.9841
 21
25.6036
  0
LINE
  8
0
 10
66.9841
 20
25.6036
 11
67.3974
 21
25.8737
  0
LINE
  8
0
 10
67.3974
 20
25.8737
 11
67.8761
 21
25.9949
  0
LINE
  8
0
 10
67.8761
 20
25.9949
 11
68.3682
 21
25.9541
  0
LINE
  8
0
 10
68.3682
 20
25.9541
 11
68.8204
 21
25.7557
  0
LINE
  8
0
 10
68.8204
 20
25.7557
 11
69.1837
 21
25.4213
  0
LINE
  8
0
 10
69.1837
 20
25.4213
 11
69.4187
 21
24.987
  0
LINE
  8
0
 10
69.4187
 20
24.987
 11
69.5
 21
24.5
  0
LINE
  8
0
 10
69.5
 20
24.5
 11
69.4187
 21
24.0129
  0
LINE
  8
0
 10
69.4187
 20
24.0129
 11
69.1837
 21
23.5787
  0
LINE
  8
0
 10
69.1837
 20
23.5787
 11
68.8204
 21
23.2442
  0
LINE
  8
0
 10
68.8204
 20
23.2442
 11
68.3682
 21
23.0459
  0
LINE
  8
0
 10
68.3682
 20
23.0459
 11
67.8761
 21
23.0051
  0
LINE
  8
0
 10
67.8761
 20
23.0051
 11
67.3974
 21
23.1263
  0
LINE
  8
0
 10
-98.5198
 20
6.55463
 11
-99.0168
 21
6.71613
  0
LINE
  8
0
 10
-99.0168
 20
6.71613
 11
-99.4695
 21
6.97745
  0
LINE
  8
0
 10
-99.4695
 20
6.97745
 11
-99.8578
 21
7.32716
  0
LINE
  8
0
 10
-99.8578
 20
7.32716
 11
-100.165
 21
7.75
  0
LINE
  8
0
 10
-100.165
 20
7.75
 11
-100.378
 21
8.22745
  0
LINE
  8
0
 10
-100.378
 20
8.22745
 11
-100.486
 21
8.73868
  0
LINE
  8
0
 10
-100.486
 20
8.73868
 11
-100.486
 21
9.26131
  0
LINE
  8
0
 10
-100.486
 20
9.26131
 11
-100.378
 21
9.77254
  0
LINE
  8
0
 10
-100.378
 20
9.77254
 11
-100.165
 21
10.25
  0
LINE
  8
0
 10
-100.165
 20
10.25
 11
-99.8578
 21
10.6728
  0
LINE
  8
0
 10
-99.8578
 20
10.6728
 11
-99.4695
 21
11.0225
  0
LINE
  8
0
 10
-99.4695
 20
11.0225
 11
-99.0168
 21
11.2839
  0
LINE
  8
0
 10
-99.0168
 20
11.2839
 11
-98.5198
 21
11.4454
  0
LINE
  8
0
 10
-98.5198
 20
11.4454
 11
-98
 21
11.5
  0
LINE
  8
0
 10
-98
 20
11.5
 11
-97.4802
 21
11.4454
  0
LINE
  8
0
 10
-97.4802
 20
11.4454
 11
-96.9832
 21
11.2839
  0
LINE
  8
0
 10
-96.9832
 20
11.2839
 11
-96.5305
 21
11.0225
  0
LINE
  8
0
 10
-96.5305
 20
11.0225
 11
-96.1422
 21
10.6728
  0
LINE
  8
0
 10
-96.1422
 20
10.6728
 11
-95.8349
 21
10.25
  0
LINE
  8
0
 10
-95.8349
 20
10.25
 11
-95.6224
 21
9.77254
  0
LINE
  8
0
 10
-95.6224
 20
9.77254
 11
-95.5137
 21
9.26131
  0
LINE
  8
0
 10
-95.5137
 20
9.26131
 11
-95.5137
 21
8.73868
  0
LINE
  8
0
 10
-95.5137
 20
8.73868
 11
-95.6224
 21
8.22745
  0
LINE
  8
0
 10
-95.6224
 20
8.22745
 11
-95.8349
 21
7.74998
  0
LINE
  8
0
 10
-95.8349
 20
7.74998
 11
-96.1422
 21
7.32716
  0
LINE
  8
0
 10
-96.1422
 20
7.32716
 11
-96.5305
 21
6.97745
  0
LINE
  8
0
 10
-96.5305
 20
6.97745
 11
-96.9832
 21
6.71613
  0
LINE
  8
0
 10
-96.9832
 20
6.71613
 11
-97.4802
 21
6.55463
  0
LINE
  8
0
 10
-97.4802
 20
6.55463
 11
-98
 21
6.5
  0
LINE
  8
0
 10
-98
 20
6.5
 11
-98.5198
 21
6.55463
  0
LINE
  8
0
 10
-98.5198
 20
-11.4454
 11
-99.0168
 21
-11.2839
  0
LINE
  8
0
 10
-99.0168
 20
-11.2839
 11
-99.4695
 21
-11.0225
  0
LINE
  8
0
 10
-99.4695
 20
-11.0225
 11
-99.8578
 21
-10.6728
  0
LINE
  8
0
 10
-99.8578
 20
-10.6728
 11
-100.165
 21
-10.25
  0
LINE
  8
0
 10
-100.165
 20
-10.25
 11
-100.378
 21
-9.77254
  0
LINE
  8
0
 10
-100.378
 20
-9.77254
 11
-100.486
 21
-9.26131
  0
LINE
  8
0
 10
-100.486
 20
-9.26131
 11
-100.486
 21
-8.73868
  0
LINE
  8
0
 10
-100.486
 20
-8.73868
 11
-100.378
 21
-8.22745
  0
LINE
  8
0
 10
-100.378
 20
-8.22745
 11
-100.165
 21
-7.75
  0
LINE
  8
0
 10
-100.165
 20
-7.75
 11
-99.8578
 21
-7.32716
  0
LINE
  8
0
 10
-99.8578
 20
-7.32716
 11
-99.4695
 21
-6.97745
  0
LINE
  8
0
 10
-99.4695
 20
-6.97745
 11
-99.0168
 21
-6.71613
  0
LINE
  8
0
 10
-99.0168
 20
-6.71613
 11
-98.5198
 21
-6.55463
  0
LINE
  8
0
 10
-98.5198
 20
-6.55463
 11
-98
 21
-6.5
  0
LINE
  8
0
 10
-98
 20
-6.5
 11
-97.4802
 21
-6.55463
  0
LINE
  8
0
 10
-97.4802
 20
-6.55463
 11
-96.9832
 21
-6.71613
  0
LINE
  8
0
 10
-96.9832
 20
-6.71613
 11
-96.5305
 21
-6.97745
  0
LINE
  8
0
 10
-96.5305
 20
-6.97745
 11
-96.1422
 21
-7.32716
  0
LINE
  8
0
 10
-96.1422
 20
-7.32716
 11
-95.8349
 21
-7.75
  0
LINE
  8
0
 10
-95.8349
 20
-7.75
 11
-95.6224
 21
-8.22745
  0
LINE
  8
0
 10
-95.6224
 20
-8.22745
 11
-95.5137
 21
-8.73868
  0
LINE
  8
0
 10
-95.5137
 20
-8.73868
 11
-95.5137
 21
-9.26131
  0
LINE
  8
0
 10
-95.5137
 20
-9.26131
 11
-95.6224
 21
-9.77254
  0
LINE
  8
0
 10
-95.6224
 20
-9.77254
 11
-95.8349
 21
-10.25
  0
LINE
  8
0
 10
-95.8349
 20
-10.25
 11
-96.1422
 21
-10.6728
  0
LINE
  8
0
 10
-96.1422
 20
-10.6728
 11
-96.5305
 21
-11.0225
  0
LINE
  8
0
 10
-96.5305
 20
-11.0225
 11
-96.9832
 21
-11.2839
  0
LINE
  8
0
 10
-96.9832
 20
-11.2839
 11
-97.4802
 21
-11.4454
  0
LINE
  8
0
 10
-97.4802
 20
-11.4454
 11
-98
 21
-11.5
  0
LINE
  8
0
 10
-98
 20
-11.5
 11
-98.5198
 21
-11.4454
  0
LINE
  8
0
 10
9.39745
 20
-25.8737
 11
8.98407
 21
-25.6036
  0
LINE
  8
0
 10
8.98407
 20
-25.6036
 11
8.68079
 21
-25.2139
  0
LINE
  8
0
 10
8.68079
 20
-25.2139
 11
8.52045
 21
-24.7469
  0
LINE
  8
0
 10
8.52045
 20
-24.7469
 11
8.52045
 21
-24.2531
  0
LINE
  8
0
 10
8.52045
 20
-24.2531
 11
8.68079
 21
-23.7861
  0
LINE
  8
0
 10
8.68079
 20
-23.7861
 11
8.98407
 21
-23.3964
  0
LINE
  8
0
 10
8.98407
 20
-23.3964
 11
9.39745
 21
-23.1263
  0
LINE
  8
0
 10
9.39745
 20
-23.1263
 11
9.87613
 21
-23.0051
  0
LINE
  8
0
 10
9.87613
 20
-23.0051
 11
10.3682
 21
-23.0459
  0
LINE
  8
0
 10
10.3682
 20
-23.0459
 11
10.8204
 21
-23.2442
  0
LINE
  8
0
 10
10.8204
 20
-23.2442
 11
11.1837
 21
-23.5787
  0
LINE
  8
0
 10
11.1837
 20
-23.5787
 11
11.4187
 21
-24.0129
  0
LINE
  8
0
 10
11.4187
 20
-24.0129
 11
11.5
 21
-24.5
  0
LINE
  8
0
 10
11.5
 20
-24.5
 11
11.4187
 21
-24.987
  0
LINE
  8
0
 10
11.4187
 20
-24.987
 11
11.1837
 21
-25.4213
  0
LINE
  8
0
 10
11.1837
 20
-25.4213
 11
10.8204
 21
-25.7557
  0
LINE
  8
0
 10
10.8204
 20
-25.7557
 11
10.3682
 21
-25.9541
  0
LINE
  8
0
 10
10.3682
 20
-25.9541
 11
9.87613
 21
-25.9949
  0
LINE
  8
0
 10
9.87613
 20
-25.9949
 11
9.39745
 21
-25.8737
  0
LINE
  8
0
 10
67.3974
 20
-25.8737
 11
66.9841
 21
-25.6036
  0
LINE
  8
0
 10
66.9841
 20
-25.6036
 11
66.6808
 21
-25.2139
  0
LINE
  8
0
 10
66.6808
 20
-25.2139
 11
66.5204
 21
-24.7469
  0
LINE
  8
0
 10
66.5204
 20
-24.7469
 11
66.5204
 21
-24.2531
  0
LINE
  8
0
 10
66.5204
 20
-24.2531
 11
66.6808
 21
-23.7861
  0
LINE
  8
0
 10
66.6808
 20
-23.7861
 11
66.9841
 21
-23.3964
  0
LINE
  8
0
 10
66.9841
 20
-23.3964
 11
67.3974
 21
-23.1263
  0
LINE
  8
0
 10
67.3974
 20
-23.1263
 11
67.8761
 21
-23.0051
  0
LINE
  8
0
 10
67.8761
 20
-23.0051
 11
68.3682
 21
-23.0459
  0
LINE
  8
0
 10
68.3682
 20
-23.0459
 11
68.8204
 21
-23.2442
  0
LINE
  8
0
 10
68.8204
 20
-23.2442
 11
69.1837
 21
-23.5787
  0
LINE
  8
0
 10
69.1837
 20
-23.5787
 11
69.4187
 21
-24.0129
  0
LINE
  8
0
 10
69.4187
 20
-24.0129
 11
69.5
 21
-24.5
  0
LINE
  8
0
 10
69.5
 20
-24.5
 11
69.4187
 21
-24.987
  0
LINE
  8
0
 10
69.4187
 20
-24.987
 11
69.1837
 21
-25.4213
  0
LINE
  8
0
 10
69.1837
 20
-25.4213
 11
68.8204
 21
-25.7557
  0
LINE
  8
0
 10
68.8204
 20
-25.7557
 11
68.3682
 21
-25.9541
  0
LINE
  8
0
 10
68.3682
 20
-25.9541
 11
67.8761
 21
-25.9949
  0
LINE
  8
0
 10
67.8761
 20
-25.9949
 11
67.3974
 21
-25.8737
  0
LINE
  8
0
 10
-60.6237
 20
-55.4344
 11
-61.2202
 21
-55.2406
  0
LINE
  8
0
 10
-61.2202
 20
-55.2406
 11
-61.7634
 21
-54.927
  0
LINE
  8
0
 10
-61.7634
 20
-54.927
 11
-62.2294
 21
-54.5074
  0
LINE
  8
0
 10
-62.2294
 20
-54.5074
 11
-62.5981
 21
-54
  0
LINE
  8
0
 10
-62.5981
 20
-54
 11
-62.8532
 21
-53.427
  0
LINE
  8
0
 10
-62.8532
 20
-53.427
 11
-62.9836
 21
-52.8136
  0
LINE
  8
0
 10
-62.9836
 20
-52.8136
 11
-62.9836
 21
-47.1864
  0
LINE
  8
0
 10
-62.9836
 20
-47.1864
 11
-62.8532
 21
-46.5729
  0
LINE
  8
0
 10
-62.8532
 20
-46.5729
 11
-62.5981
 21
-46
  0
LINE
  8
0
 10
-62.5981
 20
-46
 11
-62.2294
 21
-45.4926
  0
LINE
  8
0
 10
-62.2294
 20
-45.4926
 11
-61.7634
 21
-45.0729
  0
LINE
  8
0
 10
-61.7634
 20
-45.0729
 11
-61.2202
 21
-44.7594
  0
LINE
  8
0
 10
-61.2202
 20
-44.7594
 11
-60.6237
 21
-44.5656
  0
LINE
  8
0
 10
-60.6237
 20
-44.5656
 11
-60
 21
-44.5
  0
LINE
  8
0
 10
-60
 20
-44.5
 11
-59.3763
 21
-44.5656
  0
LINE
  8
0
 10
-59.3763
 20
-44.5656
 11
-58.7798
 21
-44.7594
  0
LINE
  8
0
 10
-58.7798
 20
-44.7594
 11
-58.2366
 21
-45.0729
  0
LINE
  8
0
 10
-58.2366
 20
-45.0729
 11
-57.7706
 21
-45.4926
  0
LINE
  8
0
 10
-57.7706
 20
-45.4926
 11
-57.4019
 21
-46
  0
LINE
  8
0
 10
-57.4019
 20
-46
 11
-57.1468
 21
-46.5729
  0
LINE
  8
0
 10
-57.1468
 20
-46.5729
 11
-57.0164
 21
-47.1864
  0
LINE
  8
0
 10
-57.0164
 20
-47.1864
 11
-57.0164
 21
-52.8136
  0
LINE
  8
0
 10
-57.0164
 20
-52.8136
 11
-57.1468
 21
-53.427
  0
LINE
  8
0
 10
-57.1468
 20
-53.427
 11
-57.4019
 21
-54
  0
LINE
  8
0
 10
-57.4019
 20
-54
 11
-57.7706
 21
-54.5074
  0
LINE
  8
0
 10
-57.7706
 20
-54.5074
 11
-58.2366
 21
-54.927
  0
LINE
  8
0
 10
-58.2366
 20
-54.927
 11
-58.7798
 21
-55.2406
  0
LINE
  8
0
 10
-58.7798
 20
-55.2406
 11
-59.3763
 21
-55.4344
  0
LINE
  8
0
 10
-59.3763
 20
-55.4344
 11
-60
 21
-55.5
  0
LINE
  8
0
 10
-60
 20
-55.5
 11
-60.6237
 21
-55.4344
  0
LINE
  8
0
 10
-45.6237
 20
-55.4344
 11
-46.2202
 21
-55.2406
  0
LINE
  8
0
 10
-46.2202
 20
-55.2406
 11
-46.7634
 21
-54.927
  0
LINE
  8
0
 10
-46.7634
 20
-54.927
 11
-47.2294
 21
-54.5074
  0
LINE
  8
0
 10
-47.2294
 20
-54.5074
 11
-47.5981
 21
-54
  0
LINE
  8
0
 10
-47.5981
 20
-54
 11
-47.8532
 21
-53.427
  0
LINE
  8
0
 10
-47.8532
 20
-53.427
 11
-47.9836
 21
-52.8136
  0
LINE
  8
0
 10
-47.9836
 20
-52.8136
 11
-47.9836
 21
-47.1864
  0
LINE
  8
0
 10
-47.9836
 20
-47.1864
 11
-47.8532
 21
-46.5729
  0
LINE
  8
0
 10
-47.8532
 20
-46.5729
 11
-47.5981
 21
-46
  0
LINE
  8
0
 10
-47.5981
 20
-46
 11
-47.2294
 21
-45.4926
  0
LINE
  8
0
 10
-47.2294
 20
-45.4926
 11
-46.7634
 21
-45.0729
  0
LINE
  8
0
 10
-46.7634
 20
-45.0729
 11
-46.2202
 21
-44.7594
  0
LINE
  8
0
 10
-46.2202
 20
-44.7594
 11
-45.6237
 21
-44.5656
  0
LINE
  8
0
 10
-45.6237
 20
-44.5656
 11
-45
 21
-44.5
  0
LINE
  8
0
 10
-45
 20
-44.5
 11
-44.3763
 21
-44.5656
  0
LINE
  8
0
 10
-44.3763
 20
-44.5656
 11
-43.7798
 21
-44.7594
  0
LINE
  8
0
 10
-43.7798
 20
-44.7594
 11
-43.2366
 21
-45.0729
  0
LINE
  8
0
 10
-43.2366
 20
-45.0729
 11
-42.7706
 21
-45.4926
  0
LINE
  8
0
 10
-42.7706
 20
-45.4926
 11
-42.4019
 21
-46
  0
LINE
  8
0
 10
-42.4019
 20
-46
 11
-42.1468
 21
-46.5729
  0
LINE
  8
0
 10
-42.1468
 20
-46.5729
 11
-42.0164
 21
-47.1864
  0
LINE
  8
0
 10
-42.0164
 20
-47.1864
 11
-42.0164
 21
-52.8136
  0
LINE
  8
0
 10
-42.0164
 20
-52.8136
 11
-42.1468
 21
-53.427
  0
LINE
  8
0
 10
-42.1468
 20
-53.427
 11
-42.4019
 21
-54
  0
LINE
  8
0
 10
-42.4019
 20
-54
 11
-42.7706
 21
-54.5074
  0
LINE
  8
0
 10
-42.7706
 20
-54.5074
 11
-43.2366
 21
-54.927
  0
LINE
  8
0
 10
-43.2366
 20
-54.927
 11
-43.7798
 21
-55.2406
  0
LINE
  8
0
 10
-43.7798
 20
-55.2406
 11
-44.3763
 21
-55.4344
  0
LINE
  8
0
 10
-44.3763
 20
-55.4344
 11
-45
 21
-55.5
  0
LINE
  8
0
 10
-45
 20
-55.5
 11
-45.6237
 21
-55.4344
  0
LINE
  8
0
 10
-30.6237
 20
-55.4344
 11
-31.2202
 21
-55.2406
  0
LINE
  8
0
 10
-31.2202
 20
-55.2406
 11
-31.7634
 21
-54.927
  0
LINE
  8
0
 10
-31.7634
 20
-54.927
 11
-32.2294
 21
-54.5074
  0
LINE
  8
0
 10
-32.2294
 20
-54.5074
 11
-32.5981
 21
-54
  0
LINE
  8
0
 10
-32.5981
 20
-54
 11
-32.8532
 21
-53.427
  0
LINE
  8
0
 10
-32.8532
 20
-53.427
 11
-32.9836
 21
-52.8136
  0
LINE
  8
0
 10
-32.9836
 20
-52.8136
 11
-32.9836
 21
-47.1864
  0
LINE
  8
0
 10
-32.9836
 20
-47.1864
 11
-32.8532
 21
-46.5729
  0
LINE
  8
0
 10
-32.8532
 20
-46.5729
 11
-32.5981
 21
-46
  0
LINE
  8
0
 10
-32.5981
 20
-46
 11
-32.2294
 21
-45.4926
  0
LINE
  8
0
 10
-32.2294
 20
-45.4926
 11
-31.7634
 21
-45.0729
  0
LINE
  8
0
 10
-31.7634
 20
-45.0729
 11
-31.2202
 21
-44.7594
  0
LINE
  8
0
 10
-31.2202
 20
-44.7594
 11
-30.6237
 21
-44.5656
  0
LINE
  8
0
 10
-30.6237
 20
-44.5656
 11
-30
 21
-44.5
  0
LINE
  8
0
 10
-30
 20
-44.5
 11
-29.3763
 21
-44.5656
  0
LINE
  8
0
 10
-29.3763
 20
-44.5656
 11
-28.7798
 21
-44.7594
  0
LINE
  8
0
 10
-28.7798
 20
-44.7594
 11
-28.2366
 21
-45.0729
  0
LINE
  8
0
 10
-28.2366
 20
-45.0729
 11
-27.7706
 21
-45.4926
  0
LINE
  8
0
 10
-27.7706
 20
-45.4926
 11
-27.4019
 21
-46
  0
LINE
  8
0
 10
-27.4019
 20
-46
 11
-27.1468
 21
-46.5729
  0
LINE
  8
0
 10
-27.1468
 20
-46.5729
 11
-27.0164
 21
-47.1864
  0
LINE
  8
0
 10
-27.0164
 20
-47.1864
 11
-27.0164
 21
-52.8136
  0
LINE
  8
0
 10
-27.0164
 20
-52.8136
 11
-27.1468
 21
-53.427
  0
LINE
  8
0
 10
-27.1468
 20
-53.427
 11
-27.4019
 21
-54
  0
LINE
  8
0
 10
-27.4019
 20
-54
 11
-27.7706
 21
-54.5074
  0
LINE
  8
0
 10
-27.7706
 20
-54.5074
 11
-28.2366
 21
-54.927
  0
LINE
  8
0
 10
-28.2366
 20
-54.927
 11
-28.7798
 21
-55.2406
  0
LINE
  8
0
 10
-28.7798
 20
-55.2406
 11
-29.3763
 21
-55.4344
  0
LINE
  8
0
 10
-29.3763
 20
-55.4344
 11
-30
 21
-55.5
  0
LINE
  8
0
 10
-30
 20
-55.5
 11
-30.6237
 21
-55.4344
  0
LINE
  8
0
 10
-15.6237
 20
-55.4344
 11
-16.2202
 21
-55.2406
  0
LINE
  8
0
 10
-16.2202
 20
-55.2406
 11
-16.7634
 21
-54.927
  0
LINE
  8
0
 10
-16.7634
 20
-54.927
 11
-17.2294
 21
-54.5074
  0
LINE
  8
0
 10
-17.2294
 20
-54.5074
 11
-17.5981
 21
-54
  0
LINE
  8
0
 10
-17.5981
 20
-54
 11
-17.8532
 21
-53.427
  0
LINE
  8
0
 10
-17.8532
 20
-53.427
 11
-17.9836
 21
-52.8136
  0
LINE
  8
0
 10
-17.9836
 20
-52.8136
 11
-17.9836
 21
-47.1864
  0
LINE
  8
0
 10
-17.9836
 20
-47.1864
 11
-17.8532
 21
-46.5729
  0
LINE
  8
0
 10
-17.8532
 20
-46.5729
 11
-17.5981
 21
-46
  0
LINE
  8
0
 10
-17.5981
 20
-46
 11
-17.2294
 21
-45.4926
  0
LINE
  8
0
 10
-17.2294
 20
-45.4926
 11
-16.7634
 21
-45.0729
  0
LINE
  8
0
 10
-16.7634
 20
-45.0729
 11
-16.2202
 21
-44.7594
  0
LINE
  8
0
 10
-16.2202
 20
-44.7594
 11
-15.6237
 21
-44.5656
  0
LINE
  8
0
 10
-15.6237
 20
-44.5656
 11
-15
 21
-44.5
  0
LINE
  8
0
 10
-15
 20
-44.5
 11
-14.3763
 21
-44.5656
  0
LINE
  8
0
 10
-14.3763
 20
-44.5656
 11
-13.7798
 21
-44.7594
  0
LINE
  8
0
 10
-13.7798
 20
-44.7594
 11
-13.2366
 21
-45.0729
  0
LINE
  8
0
 10
-13.2366
 20
-45.0729
 11
-12.7706
 21
-45.4926
  0
LINE
  8
0
 10
-12.7706
 20
-45.4926
 11
-12.4019
 21
-46
  0
LINE
  8
0
 10
-12.4019
 20
-46
 11
-12.1468
 21
-46.5729
  0
LINE
  8
0
 10
-12.1468
 20
-46.5729
 11
-12.0164
 21
-47.1864
  0
LINE
  8
0
 10
-12.0164
 20
-47.1864
 11
-12.0164
 21
-52.8136
  0
LINE
  8
0
 10
-12.0164
 20
-52.8136
 11
-12.1468
 21
-53.427
  0
LINE
  8
0
 10
-12.1468
 20
-53.427
 11
-12.4019
 21
-54
  0
LINE
  8
0
 10
-12.4019
 20
-54
 11
-12.7706
 21
-54.5074
  0
LINE
  8
0
 10
-12.7706
 20
-54.5074
 11
-13.2366
 21
-54.927
  0
LINE
  8
0
 10
-13.2366
 20
-54.927
 11
-13.7798
 21
-55.2406
  0
LINE
  8
0
 10
-13.7798
 20
-55.2406
 11
-14.3763
 21
-55.4344
  0
LINE
  8
0
 10
-14.3763
 20
-55.4344
 11
-15
 21
-55.5
  0
LINE
  8
0
 10
-15
 20
-55.5
 11
-15.6237
 21
-55.4344
  0
LINE
  8
0
 10
14.3763
 20
-55.4344
 11
13.7798
 21
-55.2406
  0
LINE
  8
0
 10
13.7798
 20
-55.2406
 11
13.2366
 21
-54.927
  0
LINE
  8
0
 10
13.2366
 20
-54.927
 11
12.7706
 21
-54.5074
  0
LINE
  8
0
 10
12.7706
 20
-54.5074
 11
12.4019
 21
-54
  0
LINE
  8
0
 10
12.4019
 20
-54
 11
12.1468
 21
-53.427
  0
LINE
  8
0
 10
12.1468
 20
-53.427
 11
12.0164
 21
-52.8136
  0
LINE
  8
0
 10
12.0164
 20
-52.8136
 11
12.0164
 21
-47.1864
  0
LINE
  8
0
 10
12.0164
 20
-47.1864
 11
12.1468
 21
-46.5729
  0
LINE
  8
0
 10
12.1468
 20
-46.5729
 11
12.4019
 21
-46
  0
LINE
  8
0
 10
12.4019
 20
-46
 11
12.7706
 21
-45.4926
  0
LINE
  8
0
 10
12.7706
 20
-45.4926
 11
13.2366
 21
-45.0729
  0
LINE
  8
0
 10
13.2366
 20
-45.0729
 11
13.7798
 21
-44.7594
  0
LINE
  8
0
 10
13.7798
 20
-44.7594
 11
14.3763
 21
-44.5656
  0
LINE
  8
0
 10
14.3763
 20
-44.5656
 11
15
 21
-44.5
  0
LINE
  8
0
 10
15
 20
-44.5
 11
15.6237
 21
-44.5656
  0
LINE
  8
0
 10
15.6237
 20
-44.5656
 11
16.2202
 21
-44.7594
  0
LINE
  8
0
 10
16.2202
 20
-44.7594
 11
16.7634
 21
-45.0729
  0
LINE
  8
0
 10
16.7634
 20
-45.0729
 11
17.2294
 21
-45.4926
  0
LINE
  8
0
 10
17.2294
 20
-45.4926
 11
17.5981
 21
-46
  0
LINE
  8
0
 10
17.5981
 20
-46
 11
17.8532
 21
-46.5729
  0
LINE
  8
0
 10
17.8532
 20
-46.5729
 11
17.9836
 21
-47.1864
  0
LINE
  8
0
 10
17.9836
 20
-47.1864
 11
17.9836
 21
-52.8136
  0
LINE
  8
0
 10
17.9836
 20
-52.8136
 11
17.8532
 21
-53.427
  0
LINE
  8
0
 10
17.8532
 20
-53.427
 11
17.5981
 21
-54
  0
LINE
  8
0
 10
17.5981
 20
-54
 11
17.2294
 21
-54.5074
  0
LINE
  8
0
 10
17.2294
 20
-54.5074
 11
16.7634
 21
-54.927
  0
LINE
  8
0
 10
16.7634
 20
-54.927
 11
16.2202
 21
-55.2406
  0
LINE
  8
0
 10
16.2202
 20
-55.2406
 11
15.6237
 21
-55.4344
  0
LINE
  8
0
 10
15.6237
 20
-55.4344
 11
15
 21
-55.5
  0
LINE
  8
0
 10
15
 20
-55.5
 11
14.3763
 21
-55.4344
  0
LINE
  8
0
 10
29.3763
 20
-55.4344
 11
28.7798
 21
-55.2406
  0
LINE
  8
0
 10
28.7798
 20
-55.2406
 11
28.2366
 21
-54.927
  0
LINE
  8
0
 10
28.2366
 20
-54.927
 11
27.7706
 21
-54.5074
  0
LINE
  8
0
 10
27.7706
 20
-54.5074
 11
27.4019
 21
-54
  0
LINE
  8
0
 10
27.4019
 20
-54
 11
27.1468
 21
-53.427
  0
LINE
  8
0
 10
27.1468
 20
-53.427
 11
27.0164
 21
-52.8136
  0
LINE
  8
0
 10
27.0164
 20
-52.8136
 11
27.0164
 21
-47.1864
  0
LINE
  8
0
 10
27.0164
 20
-47.1864
 11
27.1468
 21
-46.5729
  0
LINE
  8
0
 10
27.1468
 20
-46.5729
 11
27.4019
 21
-46
  0
LINE
  8
0
 10
27.4019
 20
-46
 11
27.7706
 21
-45.4926
  0
LINE
  8
0
 10
27.7706
 20
-45.4926
 11
28.2366
 21
-45.0729
  0
LINE
  8
0
 10
28.2366
 20
-45.0729
 11
28.7798
 21
-44.7594
  0
LINE
  8
0
 10
28.7798
 20
-44.7594
 11
29.3763
 21
-44.5656
  0
LINE
  8
0
 10
29.3763
 20
-44.5656
 11
30
 21
-44.5
  0
LINE
  8
0
 10
30
 20
-44.5
 11
30.6237
 21
-44.5656
  0
LINE
  8
0
 10
30.6237
 20
-44.5656
 11
31.2202
 21
-44.7594
  0
LINE
  8
0
 10
31.2202
 20
-44.7594
 11
31.7634
 21
-45.0729
  0
LINE
  8
0
 10
31.7634
 20
-45.0729
 11
32.2294
 21
-45.4926
  0
LINE
  8
0
 10
32.2294
 20
-45.4926
 11
32.5981
 21
-46
  0
LINE
  8
0
 10
32.5981
 20
-46
 11
32.8532
 21
-46.5729
  0
LINE
  8
0
 10
32.8532
 20
-46.5729
 11
32.9836
 21
-47.1864
  0
LINE
  8
0
 10
32.9836
 20
-47.1864
 11
32.9836
 21
-52.8136
  0
LINE
  8
0
 10
32.9836
 20
-52.8136
 11
32.8532
 21
-53.427
  0
LINE
  8
0
 10
32.8532
 20
-53.427
 11
32.5981
 21
-54
  0
LINE
  8
0
 10
32.5981
 20
-54
 11
32.2294
 21
-54.5074
  0
LINE
  8
0
 10
32.2294
 20
-54.5074
 11
31.7634
 21
-54.927
  0
LINE
  8
0
 10
31.7634
 20
-54.927
 11
31.2202
 21
-55.2406
  0
LINE
  8
0
 10
31.2202
 20
-55.2406
 11
30.6237
 21
-55.4344
  0
LINE
  8
0
 10
30.6237
 20
-55.4344
 11
30
 21
-55.5
  0
LINE
  8
0
 10
30
 20
-55.5
 11
29.3763
 21
-55.4344
  0
LINE
  8
0
 10
44.3763
 20
-55.4344
 11
43.7798
 21
-55.2406
  0
LINE
  8
0
 10
43.7798
 20
-55.2406
 11
43.2366
 21
-54.927
  0
LINE
  8
0
 10
43.2366
 20
-54.927
 11
42.7706
 21
-54.5074
  0
LINE
  8
0
 10
42.7706
 20
-54.5074
 11
42.4019
 21
-54
  0
LINE
  8
0
 10
42.4019
 20
-54
 11
42.1468
 21
-53.427
  0
LINE
  8
0
 10
42.1468
 20
-53.427
 11
42.0164
 21
-52.8136
  0
LINE
  8
0
 10
42.0164
 20
-52.8136
 11
42.0164
 21
-47.1864
  0
LINE
  8
0
 10
42.0164
 20
-47.1864
 11
42.1468
 21
-46.5729
  0
LINE
  8
0
 10
42.1468
 20
-46.5729
 11
42.4019
 21
-46
  0
LINE
  8
0
 10
42.4019
 20
-46
 11
42.7706
 21
-45.4926
  0
LINE
  8
0
 10
42.7706
 20
-45.4926
 11
43.2366
 21
-45.0729
  0
LINE
  8
0
 10
43.2366
 20
-45.0729
 11
43.7798
 21
-44.7594
  0
LINE
  8
0
 10
43.7798
 20
-44.7594
 11
44.3763
 21
-44.5656
  0
LINE
  8
0
 10
44.3763
 20
-44.5656
 11
45
 21
-44.5
  0
LINE
  8
0
 10
45
 20
-44.5
 11
45.6237
 21
-44.5656
  0
LINE
  8
0
 10
45.6237
 20
-44.5656
 11
46.2202
 21
-44.7594
  0
LINE
  8
0
 10
46.2202
 20
-44.7594
 11
46.7634
 21
-45.0729
  0
LINE
  8
0
 10
46.7634
 20
-45.0729
 11
47.2294
 21
-45.4926
  0
LINE
  8
0
 10
47.2294
 20
-45.4926
 11
47.5981
 21
-46
  0
LINE
  8
0
 10
47.5981
 20
-46
 11
47.8532
 21
-46.5729
  0
LINE
  8
0
 10
47.8532
 20
-46.5729
 11
47.9836
 21
-47.1864
  0
LINE
  8
0
 10
47.9836
 20
-47.1864
 11
47.9836
 21
-52.8136
  0
LINE
  8
0
 10
47.9836
 20
-52.8136
 11
47.8532
 21
-53.427
  0
LINE
  8
0
 10
47.8532
 20
-53.427
 11
47.5981
 21
-54
  0
LINE
  8
0
 10
47.5981
 20
-54
 11
47.2294
 21
-54.5074
  0
LINE
  8
0
 10
47.2294
 20
-54.5074
 11
46.7634
 21
-54.927
  0
LINE
  8
0
 10
46.7634
 20
-54.927
 11
46.2202
 21
-55.2406
  0
LINE
  8
0
 10
46.2202
 20
-55.2406
 11
45.6237
 21
-55.4344
  0
LINE
  8
0
 10
45.6237
 20
-55.4344
 11
45
 21
-55.5
  0
LINE
  8
0
 10
45
 20
-55.5
 11
44.3763
 21
-55.4344
  0
LINE
  8
0
 10
59.3763
 20
-55.4344
 11
58.7798
 21
-55.2406
  0
LINE
  8
0
 10
58.7798
 20
-55.2406
 11
58.2366
 21
-54.927
  0
LINE
  8
0
 10
58.2366
 20
-54.927
 11
57.7706
 21
-54.5074
  0
LINE
  8
0
 10
57.7706
 20
-54.5074
 11
57.4019
 21
-54
  0
LINE
  8
0
 10
57.4019
 20
-54
 11
57.1468
 21
-53.427
  0
LINE
  8
0
 10
57.1468
 20
-53.427
 11
57.0164
 21
-52.8136
  0
LINE
  8
0
 10
57.0164
 20
-52.8136
 11
57.0164
 21
-47.1864
  0
LINE
  8
0
 10
57.0164
 20
-47.1864
 11
57.1468
 21
-46.5729
  0
LINE
  8
0
 10
57.1468
 20
-46.5729
 11
57.4019
 21
-46
  0
LINE
  8
0
 10
57.4019
 20
-46
 11
57.7706
 21
-45.4926
  0
LINE
  8
0
 10
57.7706
 20
-45.4926
 11
58.2366
 21
-45.0729
  0
LINE
  8
0
 10
58.2366
 20
-45.0729
 11
58.7798
 21
-44.7594
  0
LINE
  8
0
 10
58.7798
 20
-44.7594
 11
59.3763
 21
-44.5656
  0
LINE
  8
0
 10
59.3763
 20
-44.5656
 11
60
 21
-44.5
  0
LINE
  8
0
 10
60
 20
-44.5
 11
60.6237
 21
-44.5656
  0
LINE
  8
0
 10
60.6237
 20
-44.5656
 11
61.2202
 21
-44.7594
  0
LINE
  8
0
 10
61.2202
 20
-44.7594
 11
61.7634
 21
-45.0729
  0
LINE
  8
0
 10
61.7634
 20
-45.0729
 11
62.2294
 21
-45.4926
  0
LINE
  8
0
 10
62.2294
 20
-45.4926
 11
62.5981
 21
-46
  0
LINE
  8
0
 10
62.5981
 20
-46
 11
62.8532
 21
-46.5729
  0
LINE
  8
0
 10
62.8532
 20
-46.5729
 11
62.9836
 21
-47.1864
  0
LINE
  8
0
 10
62.9836
 20
-47.1864
 11
62.9836
 21
-52.8136
  0
LINE
  8
0
 10
62.9836
 20
-52.8136
 11
62.8532
 21
-53.427
  0
LINE
  8
0
 10
62.8532
 20
-53.427
 11
62.5981
 21
-54
  0
LINE
  8
0
 10
62.5981
 20
-54
 11
62.2294
 21
-54.5074
  0
LINE
  8
0
 10
62.2294
 20
-54.5074
 11
61.7634
 21
-54.927
  0
LINE
  8
0
 10
61.7634
 20
-54.927
 11
61.2202
 21
-55.2406
  0
LINE
  8
0
 10
61.2202
 20
-55.2406
 11
60.6237
 21
-55.4344
  0
LINE
  8
0
 10
60.6237
 20
-55.4344
 11
60
 21
-55.5
  0
LINE
  8
0
 10
60
 20
-55.5
 11
59.3763
 21
-55.4344
  0
LINE
  8
0
 10
-0.623734
 20
-55.4344
 11
-1.2202
 21
-55.2406
  0
LINE
  8
0
 10
-1.2202
 20
-55.2406
 11
-1.76335
 21
-54.927
  0
LINE
  8
0
 10
-1.76335
 20
-54.927
 11
-2.22943
 21
-54.5074
  0
LINE
  8
0
 10
-2.22943
 20
-54.5074
 11
-2.59807
 21
-54
  0
LINE
  8
0
 10
-2.59807
 20
-54
 11
-2.85316
 21
-53.427
  0
LINE
  8
0
 10
-2.85316
 20
-53.427
 11
-2.98355
 21
-52.8136
  0
LINE
  8
0
 10
-2.98355
 20
-52.8136
 11
-2.98355
 21
-47.1864
  0
LINE
  8
0
 10
-2.98355
 20
-47.1864
 11
-2.85316
 21
-46.5729
  0
LINE
  8
0
 10
-2.85316
 20
-46.5729
 11
-2.59807
 21
-46
  0
LINE
  8
0
 10
-2.59807
 20
-46
 11
-2.22943
 21
-45.4926
  0
LINE
  8
0
 10
-2.22943
 20
-45.4926
 11
-1.76335
 21
-45.0729
  0
LINE
  8
0
 10
-1.76335
 20
-45.0729
 11
-1.2202
 21
-44.7594
  0
LINE
  8
0
 10
-1.2202
 20
-44.7594
 11
-0.623734
 21
-44.5656
  0
LINE
  8
0
 10
-0.623734
 20
-44.5656
 11
0
 21
-44.5
  0
LINE
  8
0
 10
0
 20
-44.5
 11
0.623734
 21
-44.5656
  0
LINE
  8
0
 10
0.623734
 20
-44.5656
 11
1.2202
 21
-44.7594
  0
LINE
  8
0
 10
1.2202
 20
-44.7594
 11
1.76335
 21
-45.0729
  0
LINE
  8
0
 10
1.76335
 20
-45.0729
 11
2.22943
 21
-45.4926
  0
LINE
  8
0
 10
2.22943
 20
-45.4926
 11
2.59807
 21
-46
  0
LINE
  8
0
 10
2.59807
 20
-46
 11
2.85316
 21
-46.5729
  0
LINE
  8
0
 10
2.85316
 20
-46.5729
 11
2.98355
 21
-47.1864
  0
LINE
  8
0
 10
2.98355
 20
-47.1864
 11
2.98355
 21
-52.8136
  0
LINE
  8
0
 10
2.98355
 20
-52.8136
 11
2.85316
 21
-53.427
  0
LINE
  8
0
 10
2.85316
 20
-53.427
 11
2.59807
 21
-54
  0
LINE
  8
0
 10
2.59807
 20
-54
 11
2.22943
 21
-54.5074
  0
LINE
  8
0
 10
2.22943
 20
-54.5074
 11
1.76335
 21
-54.927
  0
LINE
  8
0
 10
1.76335
 20
-54.927
 11
1.2202
 21
-55.2406
  0
LINE
  8
0
 10
1.2202
 20
-55.2406
 11
0.623734
 21
-55.4344
  0
LINE
  8
0
 10
0.623734
 20
-55.4344
 11
0
 21
-55.5
  0
LINE
  8
0
 10
0
 20
-55.5
 11
-0.623734
 21
-55.4344
  0
LINE
  8
0
 10
-99.2613
 20
-52.4863
 11
-99.7725
 21
-52.3776
  0
LINE
  8
0
 10
-99.7725
 20
-52.3776
 11
-100.25
 21
-52.1651
  0
LINE
  8
0
 10
-100.25
 20
-52.1651
 11
-100.673
 21
-51.8578
  0
LINE
  8
0
 10
-100.673
 20
-51.8578
 11
-101.023
 21
-51.4695
  0
LINE
  8
0
 10
-101.023
 20
-51.4695
 11
-101.284
 21
-51.0168
  0
LINE
  8
0
 10
-101.284
 20
-51.0168
 11
-101.445
 21
-50.5198
  0
LINE
  8
0
 10
-101.445
 20
-50.5198
 11
-101.5
 21
-50
  0
LINE
  8
0
 10
-101.5
 20
-50
 11
-101.445
 21
-49.4802
  0
LINE
  8
0
 10
-101.445
 20
-49.4802
 11
-101.284
 21
-48.9832
  0
LINE
  8
0
 10
-101.284
 20
-48.9832
 11
-101.023
 21
-48.5305
  0
LINE
  8
0
 10
-101.023
 20
-48.5305
 11
-100.673
 21
-48.1422
  0
LINE
  8
0
 10
-100.673
 20
-48.1422
 11
-100.25
 21
-47.8349
  0
LINE
  8
0
 10
-100.25
 20
-47.8349
 11
-99.7725
 21
-47.6224
  0
LINE
  8
0
 10
-99.7725
 20
-47.6224
 11
-99.2613
 21
-47.5137
  0
LINE
  8
0
 10
-99.2613
 20
-47.5137
 11
-98.7387
 21
-47.5137
  0
LINE
  8
0
 10
-98.7387
 20
-47.5137
 11
-98.2274
 21
-47.6224
  0
LINE
  8
0
 10
-98.2274
 20
-47.6224
 11
-97.75
 21
-47.8349
  0
LINE
  8
0
 10
-97.75
 20
-47.8349
 11
-97.3272
 21
-48.1422
  0
LINE
  8
0
 10
-97.3272
 20
-48.1422
 11
-96.9774
 21
-48.5305
  0
LINE
  8
0
 10
-96.9774
 20
-48.5305
 11
-96.7161
 21
-48.9832
  0
LINE
  8
0
 10
-96.7161
 20
-48.9832
 11
-96.5546
 21
-49.4802
  0
LINE
  8
0
 10
-96.5546
 20
-49.4802
 11
-96.5
 21
-50
  0
LINE
  8
0
 10
-96.5
 20
-50
 11
-96.5546
 21
-50.5198
  0
LINE
  8
0
 10
-96.5546
 20
-50.5198
 11
-96.7161
 21
-51.0168
  0
LINE
  8
0
 10
-96.7161
 20
-51.0168
 11
-96.9774
 21
-51.4695
  0
LINE
  8
0
 10
-96.9774
 20
-51.4695
 11
-97.3272
 21
-51.8578
  0
LINE
  8
0
 10
-97.3272
 20
-51.8578
 11
-97.75
 21
-52.1651
  0
LINE
  8
0
 10
-97.75
 20
-52.1651
 11
-98.2274
 21
-52.3776
  0
LINE
  8
0
 10
-98.2274
 20
-52.3776
 11
-98.7387
 21
-52.4863
  0
LINE
  8
0
 10
-98.7387
 20
-52.4863
 11
-99.2613
 21
-52.4863
  0
LINE
  8
0
 10
-81.2613
 20
-52.4863
 11
-81.7726
 21
-52.3776
  0
LINE
  8
0
 10
-81.7726
 20
-52.3776
 11
-82.25
 21
-52.1651
  0
LINE
  8
0
 10
-82.25
 20
-52.1651
 11
-82.6728
 21
-51.8578
  0
LINE
  8
0
 10
-82.6728
 20
-51.8578
 11
-83.0226
 21
-51.4695
  0
LINE
  8
0
 10
-83.0226
 20
-51.4695
 11
-83.2839
 21
-51.0168
  0
LINE
  8
0
 10
-83.2839
 20
-51.0168
 11
-83.4454
 21
-50.5198
  0
LINE
  8
0
 10
-83.4454
 20
-50.5198
 11
-83.5
 21
-50
  0
LINE
  8
0
 10
-83.5
 20
-50
 11
-83.4454
 21
-49.4802
  0
LINE
  8
0
 10
-83.4454
 20
-49.4802
 11
-83.2839
 21
-48.9832
  0
LINE
  8
0
 10
-83.2839
 20
-48.9832
 11
-83.0226
 21
-48.5305
  0
LINE
  8
0
 10
-83.0226
 20
-48.5305
 11
-82.6728
 21
-48.1422
  0
LINE
  8
0
 10
-82.6728
 20
-48.1422
 11
-82.25
 21
-47.8349
  0
LINE
  8
0
 10
-82.25
 20
-47.8349
 11
-81.7726
 21
-47.6224
  0
LINE
  8
0
 10
-81.7726
 20
-47.6224
 11
-81.2613
 21
-47.5137
  0
LINE
  8
0
 10
-81.2613
 20
-47.5137
 11
-80.7387
 21
-47.5137
  0
LINE
  8
0
 10
-80.7387
 20
-47.5137
 11
-80.2275
 21
-47.6224
  0
LINE
  8
0
 10
-80.2275
 20
-47.6224
 11
-79.75
 21
-47.8349
  0
LINE
  8
0
 10
-79.75
 20
-47.8349
 11
-79.3272
 21
-48.1422
  0
LINE
  8
0
 10
-79.3272
 20
-48.1422
 11
-78.9775
 21
-48.5305
  0
LINE
  8
0
 10
-78.9775
 20
-48.5305
 11
-78.7161
 21
-48.9832
  0
LINE
  8
0
 10
-78.7161
 20
-48.9832
 11
-78.5546
 21
-49.4802
  0
LINE
  8
0
 10
-78.5546
 20
-49.4802
 11
-78.5
 21
-50
  0
LINE
  8
0
 10
-78.5
 20
-50
 11
-78.5546
 21
-50.5198
  0
LINE
  8
0
 10
-78.5546
 20
-50.5198
 11
-78.7161
 21
-51.0168
  0
LINE
  8
0
 10
-78.7161
 20
-51.0168
 11
-78.9775
 21
-51.4695
  0
LINE
  8
0
 10
-78.9775
 20
-51.4695
 11
-79.3272
 21
-51.8578
  0
LINE
  8
0
 10
-79.3272
 20
-51.8578
 11
-79.75
 21
-52.1651
  0
LINE
  8
0
 10
-79.75
 20
-52.1651
 11
-80.2275
 21
-52.3776
  0
LINE
  8
0
 10
-80.2275
 20
-52.3776
 11
-80.7387
 21
-52.4863
  0
LINE
  8
0
 10
-80.7387
 20
-52.4863
 11
-81.2613
 21
-52.4863
  0
LINE
  8
0
 10
80.7387
 20
-52.4863
 11
80.2275
 21
-52.3776
  0
LINE
  8
0
 10
80.2275
 20
-52.3776
 11
79.75
 21
-52.1651
  0
LINE
  8
0
 10
79.75
 20
-52.1651
 11
79.3272
 21
-51.8578
  0
LINE
  8
0
 10
79.3272
 20
-51.8578
 11
78.9775
 21
-51.4695
  0
LINE
  8
0
 10
78.9775
 20
-51.4695
 11
78.7161
 21
-51.0168
  0
LINE
  8
0
 10
78.7161
 20
-51.0168
 11
78.5546
 21
-50.5198
  0
LINE
  8
0
 10
78.5546
 20
-50.5198
 11
78.5
 21
-50
  0
LINE
  8
0
 10
78.5
 20
-50
 11
78.5546
 21
-49.4802
  0
LINE
  8
0
 10
78.5546
 20
-49.4802
 11
78.7161
 21
-48.9832
  0
LINE
  8
0
 10
78.7161
 20
-48.9832
 11
78.9775
 21
-48.5305
  0
LINE
  8
0
 10
78.9775
 20
-48.5305
 11
79.3272
 21
-48.1422
  0
LINE
  8
0
 10
79.3272
 20
-48.1422
 11
79.75
 21
-47.8349
  0
LINE
  8
0
 10
79.75
 20
-47.8349
 11
80.2275
 21
-47.6224
  0
LINE
  8
0
 10
80.2275
 20
-47.6224
 11
80.7387
 21
-47.5137
  0
LINE
  8
0
 10
80.7387
 20
-47.5137
 11
81.2613
 21
-47.5137
  0
LINE
  8
0
 10
81.2613
 20
-47.5137
 11
81.7726
 21
-47.6224
  0
LINE
  8
0
 10
81.7726
 20
-47.6224
 11
82.25
 21
-47.8349
  0
LINE
  8
0
 10
82.25
 20
-47.8349
 11
82.6728
 21
-48.1422
  0
LINE
  8
0
 10
82.6728
 20
-48.1422
 11
83.0226
 21
-48.5305
  0
LINE
  8
0
 10
83.0226
 20
-48.5305
 11
83.2839
 21
-48.9832
  0
LINE
  8
0
 10
83.2839
 20
-48.9832
 11
83.4454
 21
-49.4802
  0
LINE
  8
0
 10
83.4454
 20
-49.4802
 11
83.5
 21
-50
  0
LINE
  8
0
 10
83.5
 20
-50
 11
83.4454
 21
-50.5198
  0
LINE
  8
0
 10
83.4454
 20
-50.5198
 11
83.2839
 21
-51.0168
  0
LINE
  8
0
 10
83.2839
 20
-51.0168
 11
83.0226
 21
-51.4695
  0
LINE
  8
0
 10
83.0226
 20
-51.4695
 11
82.6728
 21
-51.8578
  0
LINE
  8
0
 10
82.6728
 20
-51.8578
 11
82.25
 21
-52.1651
  0
LINE
  8
0
 10
82.25
 20
-52.1651
 11
81.7726
 21
-52.3776
  0
LINE
  8
0
 10
81.7726
 20
-52.3776
 11
81.2613
 21
-52.4863
  0
LINE
  8
0
 10
81.2613
 20
-52.4863
 11
80.7387
 21
-52.4863
  0
LINE
  8
0
 10
98.7387
 20
-52.4863
 11
98.2274
 21
-52.3776
  0
LINE
  8
0
 10
98.2274
 20
-52.3776
 11
97.75
 21
-52.1651
  0
LINE
  8
0
 10
97.75
 20
-52.1651
 11
97.3272
 21
-51.8578
  0
LINE
  8
0
 10
97.3272
 20
-51.8578
 11
96.9774
 21
-51.4695
  0
LINE
  8
0
 10
96.9774
 20
-51.4695
 11
96.7161
 21
-51.0168
  0
LINE
  8
0
 10
96.7161
 20
-51.0168
 11
96.5546
 21
-50.5198
  0
LINE
  8
0
 10
96.5546
 20
-50.5198
 11
96.5
 21
-50
  0
LINE
  8
0
 10
96.5
 20
-50
 11
96.5546
 21
-49.4802
  0
LINE
  8
0
 10
96.5546
 20
-49.4802
 11
96.7161
 21
-48.9832
  0
LINE
  8
0
 10
96.7161
 20
-48.9832
 11
96.9774
 21
-48.5305
  0
LINE
  8
0
 10
96.9774
 20
-48.5305
 11
97.3272
 21
-48.1422
  0
LINE
  8
0
 10
97.3272
 20
-48.1422
 11
97.75
 21
-47.8349
  0
LINE
  8
0
 10
97.75
 20
-47.8349
 11
98.2274
 21
-47.6224
  0
LINE
  8
0
 10
98.2274
 20
-47.6224
 11
98.7387
 21
-47.5137
  0
LINE
  8
0
 10
98.7387
 20
-47.5137
 11
99.2613
 21
-47.5137
  0
LINE
  8
0
 10
99.2613
 20
-47.5137
 11
99.7725
 21
-47.6224
  0
LINE
  8
0
 10
99.7725
 20
-47.6224
 11
100.25
 21
-47.8349
  0
LINE
  8
0
 10
100.25
 20
-47.8349
 11
100.673
 21
-48.1422
  0
LINE
  8
0
 10
100.673
 20
-48.1422
 11
101.023
 21
-48.5305
  0
LINE
  8
0
 10
101.023
 20
-48.5305
 11
101.284
 21
-48.9832
  0
LINE
  8
0
 10
101.284
 20
-48.9832
 11
101.445
 21
-49.4802
  0
LINE
  8
0
 10
101.445
 20
-49.4802
 11
101.5
 21
-50
  0
LINE
  8
0
 10
101.5
 20
-50
 11
101.445
 21
-50.5198
  0
LINE
  8
0
 10
101.445
 20
-50.5198
 11
101.284
 21
-51.0168
  0
LINE
  8
0
 10
101.284
 20
-51.0168
 11
101.023
 21
-51.4695
  0
LINE
  8
0
 10
101.023
 20
-51.4695
 11
100.673
 21
-51.8578
  0
LINE
  8
0
 10
100.673
 20
-51.8578
 11
100.25
 21
-52.1651
  0
LINE
  8
0
 10
100.25
 20
-52.1651
 11
99.7725
 21
-52.3776
  0
LINE
  8
0
 10
99.7725
 20
-52.3776
 11
99.2613
 21
-52.4863
  0
LINE
  8
0
 10
99.2613
 20
-52.4863
 11
98.7387
 21
-52.4863
  0
ENDSEC
  0
SECTION
  2
OBJECTS
  0
DICTIONARY
  0
ENDSEC
  0
EOF
